  0
SECTION
  2
HEADER
  9
$ACADVER
  1
AC1015
  9
$ACADMAINTVER
 70
     6
  9
$DWGCODEPAGE
  3
ANSI_1252
  9
$INSBASE
 10
0.0
 20
0.0
 30
0.0
  9
$EXTMIN
 10
0.0
 20
0.0
 30
0.0
  9
$EXTMAX
 10
207.0
 20
297.0
 30
0.0
  9
$LIMMIN
 10
0.0
 20
0.0
  9
$LIMMAX
 10
420.0
 20
297.0
  9
$ORTHOMODE
 70
     0
  9
$REGENMODE
 70
     1
  9
$FILLMODE
 70
     1
  9
$QTEXTMODE
 70
     0
  9
$MIRRTEXT
 70
     1
  9
$LTSCALE
 40
1.0
  9
$ATTMODE
 70
     1
  9
$TEXTSIZE
 40
2.5
  9
$TRACEWID
 40
1.0
  9
$TEXTSTYLE
  7
Standard
  9
$CLAYER
  8
0
  9
$CELTYPE
  6
ByLayer
  9
$CECOLOR
 62
   256
  9
$CELTSCALE
 40
1.0
  9
$DISPSILH
 70
     0
  9
$DIMSCALE
 40
1.0
  9
$DIMASZ
 40
2.5
  9
$DIMEXO
 40
0.625
  9
$DIMDLI
 40
3.75
  9
$DIMRND
 40
0.0
  9
$DIMDLE
 40
0.0
  9
$DIMEXE
 40
1.25
  9
$DIMTP
 40
0.0
  9
$DIMTM
 40
0.0
  9
$DIMTXT
 40
2.5
  9
$DIMCEN
 40
2.5
  9
$DIMTSZ
 40
0.0
  9
$DIMTOL
 70
     0
  9
$DIMLIM
 70
     0
  9
$DIMTIH
 70
     0
  9
$DIMTOH
 70
     0
  9
$DIMSE1
 70
     0
  9
$DIMSE2
 70
     0
  9
$DIMTAD
 70
     1
  9
$DIMZIN
 70
     8
  9
$DIMBLK
  1

  9
$DIMASO
 70
     1
  9
$DIMSHO
 70
     1
  9
$DIMPOST
  1

  9
$DIMAPOST
  1

  9
$DIMALT
 70
     0
  9
$DIMALTD
 70
     3
  9
$DIMALTF
 40
0.03937007874016
  9
$DIMLFAC
 40
1.0
  9
$DIMTOFL
 70
     1
  9
$DIMTVP
 40
0.0
  9
$DIMTIX
 70
     0
  9
$DIMSOXD
 70
     0
  9
$DIMSAH
 70
     0
  9
$DIMBLK1
  1

  9
$DIMBLK2
  1

  9
$DIMSTYLE
  2
ISO-25
  9
$DIMCLRD
 70
     0
  9
$DIMCLRE
 70
     0
  9
$DIMCLRT
 70
     0
  9
$DIMTFAC
 40
1.0
  9
$DIMGAP
 40
0.625
  9
$DIMJUST
 70
     0
  9
$DIMSD1
 70
     0
  9
$DIMSD2
 70
     0
  9
$DIMTOLJ
 70
     0
  9
$DIMTZIN
 70
     8
  9
$DIMALTZ
 70
     0
  9
$DIMALTTZ
 70
     0
  9
$DIMUPT
 70
     0
  9
$DIMDEC
 70
     2
  9
$DIMTDEC
 70
     2
  9
$DIMALTU
 70
     2
  9
$DIMALTTD
 70
     3
  9
$DIMTXSTY
  7
Standard
  9
$DIMAUNIT
 70
     0
  9
$DIMADEC
 70
     0
  9
$DIMALTRND
 40
0.0
  9
$DIMAZIN
 70
     0
  9
$DIMDSEP
 70
    44
  9
$DIMATFIT
 70
     3
  9
$DIMFRAC
 70
     0
  9
$DIMLDRBLK
  1

  9
$DIMLUNIT
 70
     2
  9
$DIMLWD
 70
    -2
  9
$DIMLWE
 70
    -2
  9
$DIMTMOVE
 70
     0
  9
$LUNITS
 70
     2
  9
$LUPREC
 70
     4
  9
$SKETCHINC
 40
1.0
  9
$FILLETRAD
 40
10.0
  9
$AUNITS
 70
     0
  9
$AUPREC
 70
     0
  9
$MENU
  1
.
  9
$ELEVATION
 40
0.0
  9
$PELEVATION
 40
0.0
  9
$THICKNESS
 40
0.0
  9
$LIMCHECK
 70
     0
  9
$CHAMFERA
 40
10.0
  9
$CHAMFERB
 40
10.0
  9
$CHAMFERC
 40
20.0
  9
$CHAMFERD
 40
0.0
  9
$SKPOLY
 70
     0
  9
$TDCREATE
 40
2457072.429742963
  9
$TDUCREATE
 40
2457072.388076296
  9
$TDUPDATE
 40
2457072.429742975
  9
$TDUUPDATE
 40
2457072.388076308
  9
$TDINDWG
 40
0.0000000116
  9
$TDUSRTIMER
 40
0.0000000116
  9
$USRTIMER
 70
     1
  9
$ANGBASE
 50
0.0
  9
$ANGDIR
 70
     0
  9
$PDMODE
 70
     0
  9
$PDSIZE
 40
0.0
  9
$PLINEWID
 40
0.0
  9
$SPLFRAME
 70
     0
  9
$SPLINETYPE
 70
     6
  9
$SPLINESEGS
 70
     8
  9
$HANDSEED
  5
3A2
  9
$SURFTAB1
 70
     6
  9
$SURFTAB2
 70
     6
  9
$SURFTYPE
 70
     6
  9
$SURFU
 70
     6
  9
$SURFV
 70
     6
  9
$UCSBASE
  2

  9
$UCSNAME
  2

  9
$UCSORG
 10
0.0
 20
0.0
 30
0.0
  9
$UCSXDIR
 10
1.0
 20
0.0
 30
0.0
  9
$UCSYDIR
 10
0.0
 20
1.0
 30
0.0
  9
$UCSORTHOREF
  2

  9
$UCSORTHOVIEW
 70
     0
  9
$UCSORGTOP
 10
0.0
 20
0.0
 30
0.0
  9
$UCSORGBOTTOM
 10
0.0
 20
0.0
 30
0.0
  9
$UCSORGLEFT
 10
0.0
 20
0.0
 30
0.0
  9
$UCSORGRIGHT
 10
0.0
 20
0.0
 30
0.0
  9
$UCSORGFRONT
 10
0.0
 20
0.0
 30
0.0
  9
$UCSORGBACK
 10
0.0
 20
0.0
 30
0.0
  9
$PUCSBASE
  2

  9
$PUCSNAME
  2

  9
$PUCSORG
 10
0.0
 20
0.0
 30
0.0
  9
$PUCSXDIR
 10
1.0
 20
0.0
 30
0.0
  9
$PUCSYDIR
 10
0.0
 20
1.0
 30
0.0
  9
$PUCSORTHOREF
  2

  9
$PUCSORTHOVIEW
 70
     0
  9
$PUCSORGTOP
 10
0.0
 20
0.0
 30
0.0
  9
$PUCSORGBOTTOM
 10
0.0
 20
0.0
 30
0.0
  9
$PUCSORGLEFT
 10
0.0
 20
0.0
 30
0.0
  9
$PUCSORGRIGHT
 10
0.0
 20
0.0
 30
0.0
  9
$PUCSORGFRONT
 10
0.0
 20
0.0
 30
0.0
  9
$PUCSORGBACK
 10
0.0
 20
0.0
 30
0.0
  9
$USERI1
 70
     0
  9
$USERI2
 70
     0
  9
$USERI3
 70
     0
  9
$USERI4
 70
     0
  9
$USERI5
 70
     0
  9
$USERR1
 40
0.0
  9
$USERR2
 40
0.0
  9
$USERR3
 40
0.0
  9
$USERR4
 40
0.0
  9
$USERR5
 40
0.0
  9
$WORLDVIEW
 70
     1
  9
$SHADEDGE
 70
     3
  9
$SHADEDIF
 70
    70
  9
$TILEMODE
 70
     1
  9
$MAXACTVP
 70
    64
  9
$PINSBASE
 10
0.0
 20
0.0
 30
0.0
  9
$PLIMCHECK
 70
     0
  9
$PEXTMIN
 10
1.000000000000000E+20
 20
1.000000000000000E+20
 30
1.000000000000000E+20
  9
$PEXTMAX
 10
-1.000000000000000E+20
 20
-1.000000000000000E+20
 30
-1.000000000000000E+20
  9
$PLIMMIN
 10
0.0
 20
0.0
  9
$PLIMMAX
 10
420.0
 20
297.0
  9
$UNITMODE
 70
     0
  9
$VISRETAIN
 70
     1
  9
$PLINEGEN
 70
     0
  9
$PSLTSCALE
 70
     1
  9
$TREEDEPTH
 70
  3020
  9
$CMLSTYLE
  2
Standard
  9
$CMLJUST
 70
     0
  9
$CMLSCALE
 40
20.0
  9
$PROXYGRAPHICS
 70
     1
  9
$MEASUREMENT
 70
     1
  9
$CELWEIGHT
370
    -1
  9
$ENDCAPS
280
     0
  9
$JOINSTYLE
280
     0
  9
$LWDISPLAY
290
     0
  9
$INSUNITS
 70
     4
  9
$HYPERLINKBASE
  1

  9
$STYLESHEET
  1

  9
$XEDIT
290
     1
  9
$CEPSNTYPE
380
     0
  9
$PSTYLEMODE
290
     1
  9
$FINGERPRINTGUID
  2
{542B3FB7-09F0-4C51-8ACA-843747E605D9}
  9
$VERSIONGUID
  2
{FAEB1C32-E019-11D5-929B-00C0DF256EC4}
  9
$EXTNAMES
290
     1
  9
$PSVPSCALE
 40
0.0
  9
$OLESTARTUP
290
     0
  0
ENDSEC
  0
SECTION
  2
CLASSES
  0
CLASS
  1
ACDBDICTIONARYWDFLT
  2
AcDbDictionaryWithDefault
  3
ObjectDBX Classes
 90
        0
280
     0
281
     0
  0
CLASS
  1
VISUALSTYLE
  2
AcDbVisualStyle
  3
ObjectDBX Classes
 90
     4095
280
     0
281
     0
  0
CLASS
  1
MATERIAL
  2
AcDbMaterial
  3
ObjectDBX Classes
 90
     1153
280
     0
281
     0
  0
CLASS
  1
SCALE
  2
AcDbScale
  3
ObjectDBX Classes
 90
     1153
280
     0
281
     0
  0
CLASS
  1
DICTIONARYVAR
  2
AcDbDictionaryVar
  3
ObjectDBX Classes
 90
        0
280
     0
281
     0
  0
CLASS
  1
ACDBPLACEHOLDER
  2
AcDbPlaceHolder
  3
ObjectDBX Classes
 90
        0
280
     0
281
     0
  0
CLASS
  1
LAYOUT
  2
AcDbLayout
  3
ObjectDBX Classes
 90
        0
280
     0
281
     0
  0
ENDSEC
  0
SECTION
  2
TABLES
  0
TABLE
  2
VPORT
  5
8
330
0
100
AcDbSymbolTable
 70
     1
  0
VPORT
  5
29
330
8
100
AcDbSymbolTableRecord
100
AcDbViewportTableRecord
  2
*Active
 70
     0
 10
0.0
 20
0.0
 11
1.0
 21
1.0
 12
103.0
 22
148.0
 13
0.0
 23
0.0
 14
10.0
 24
10.0
 15
10.0
 25
10.0
 16
0.0
 26
0.0
 36
1.0
 17
0.0
 27
0.0
 37
0.0
 40
297.0
 41
0.696969696969697
 42
50.0
 43
0.0
 44
0.0
 50
0.0
 51
0.0
 71
     0
 72
   100
 73
     1
 74
     3
 75
     0
 76
     0
 77
     0
 78
     0
281
     0
 65
     1
110
0.0
120
0.0
130
0.0
111
1.0
121
0.0
131
0.0
112
0.0
122
1.0
132
0.0
 79
     0
146
0.0
  0
ENDTAB
  0
TABLE
  2
LTYPE
  5
5
330
0
100
AcDbSymbolTable
 70
    10
  0
LTYPE
  5
14
330
5
100
AcDbSymbolTableRecord
100
AcDbLinetypeTableRecord
  2
ByBlock
 70
     0
  3

 72
    65
 73
     0
 40
0.0
  0
LTYPE
  5
15
330
5
100
AcDbSymbolTableRecord
100
AcDbLinetypeTableRecord
  2
ByLayer
 70
     0
  3

 72
    65
 73
     0
 40
0.0
  0
LTYPE
  5
16
330
5
100
AcDbSymbolTableRecord
100
AcDbLinetypeTableRecord
  2
Continuous
 70
     0
  3
Solid line
 72
    65
 73
     0
 40
0.0
  0
LTYPE
  5
42
330
5
100
AcDbSymbolTableRecord
100
AcDbLinetypeTableRecord
  2
Continuous2
 70
     0
  3
Solid line
 72
    65
 73
     0
 40
0.0
  0
LTYPE
  5
43
330
5
100
AcDbSymbolTableRecord
100
AcDbLinetypeTableRecord
  2
DOTTED
 70
     0
  3
Dotted Line
 72
    65
 73
     4
 40
5.0
 49
3.0
 74
     0
 49
-1.0
 74
     0
 49
1.0
 74
     0
 49
-1.0
 74
     0
  0
LTYPE
  5
44
330
5
100
AcDbSymbolTableRecord
100
AcDbLinetypeTableRecord
  2
LONGDASH
 70
     0
  3
LongDash Line
 72
    65
 73
     2
 40
1.6
 49
1.2
 74
     0
 49
-0.4
 74
     0
  0
LTYPE
  5
45
330
5
100
AcDbSymbolTableRecord
100
AcDbLinetypeTableRecord
  2
DASHDOT
 70
     0
  3
DashDot Line
 72
    65
 73
     4
 40
1.6
 49
0.9
 74
     0
 49
-0.3
 74
     0
 49
0.1
 74
     0
 49
-0.3
 74
     0
  0
LTYPE
  5
46
330
5
100
AcDbSymbolTableRecord
100
AcDbLinetypeTableRecord
  2
DASH
 70
     0
  3
Dash Line
 72
    65
 73
     2
 40
1.6
 49
0.8
 74
     0
 49
-0.8
 74
     0
  0
LTYPE
  5
47
330
5
100
AcDbSymbolTableRecord
100
AcDbLinetypeTableRecord
  2
LONGDASHSHORTDASH
 70
     0
  3
LongDashShortDash Line
 72
    65
 73
     4
 40
1.6
 49
0.7
 74
     0
 49
-0.3
 74
     0
 49
0.3
 74
     0
 49
-0.3
 74
     0
  0
LTYPE
  5
48
330
5
100
AcDbSymbolTableRecord
100
AcDbLinetypeTableRecord
  2
DASHDOUBLEDOT
 70
     0
  3
DashDoubleDot Line
 72
    65
 73
     6
 40
1.6
 49
0.5
 74
     0
 49
-0.3
 74
     0
 49
0.1
 74
     0
 49
-0.3
 74
     0
 49
0.1
 74
     0
 49
-0.3
 74
     0
  0
LTYPE
  5
49
330
5
100
AcDbSymbolTableRecord
100
AcDbLinetypeTableRecord
  2
DASHSPACE
 70
     0
  3
DashSpace Line
 72
    65
 73
     2
 40
1.6
 49
0.6
 74
     0
 49
-1.0
 74
     0
  0
LTYPE
  5
4A
330
5
100
AcDbSymbolTableRecord
100
AcDbLinetypeTableRecord
  2
DOT
 70
     0
  3
Dot Line
 72
    65
 73
     2
 40
1.6
 49
0.4
 74
     0
 49
-1.2
 74
     0
  0
ENDTAB
  0
TABLE
  2
LAYER
  5
2
330
0
100
AcDbSymbolTable
 70
     2
  0
LAYER
  5
10
330
2
100
AcDbSymbolTableRecord
100
AcDbLayerTableRecord
  2
0
 70
     0
 62
     7
  6
Continuous
370
    -3
390
F
  0
LAYER
  5
3F
330
2
100
AcDbSymbolTableRecord
100
AcDbLayerTableRecord
  2
WSCAD
 70
     0
 62
     7
  6
Continuous
370
    -3
390
F
  0
ENDTAB
  0
TABLE
  2
STYLE
  5
3
330
0
100
AcDbSymbolTable
 70
     7
  0
STYLE
  5
11
330
3
100
AcDbSymbolTableRecord
100
AcDbTextStyleTableRecord
  2
Standard
 70
     0
 40
0.0
 41
1.0
 50
0.0
 71
     0
 42
2.5
  3
txt
  4

  0
STYLE
  5
40
330
3
100
AcDbSymbolTableRecord
100
AcDbTextStyleTableRecord
  2
WSCAD
 70
     0
 40
0.0
 41
1.0
 50
0.0
 71
     0
 42
0.2
  3
txt
  4

  0
STYLE
  5
41
330
3
100
AcDbSymbolTableRecord
100
AcDbTextStyleTableRecord
  2

 70
     1
 40
0.0
 41
1.0
 50
0.0
 71
     0
 42
22.45
  3
ltypeshp.shx
  4

  0
STYLE
  5
4B
330
3
100
AcDbSymbolTableRecord
100
AcDbTextStyleTableRecord
  2
WSCAD_ALLGTEXT
 70
     0
 40
0.0
 41
1.0
 50
0.0
 71
     0
 42
0.2
  3
WSCTTF01.TTF
  4

1001
ACAD
1000
WSCAD_FONT1
1071
      513
  0
STYLE
  5
4C
330
3
100
AcDbSymbolTableRecord
100
AcDbTextStyleTableRecord
  2
WSCAD_STANDARD
 70
     0
 40
0.0
 41
1.0
 50
0.0
 71
     0
 42
0.2
  3
WSCAD
  4

1001
ACAD
1000
Arial
1071
        0
  0
STYLE
  5
4D
330
3
100
AcDbSymbolTableRecord
100
AcDbTextStyleTableRecord
  2
WSCAD_PROPO
 70
     0
 40
0.0
 41
1.0
 50
0.0
 71
     0
 42
0.2
  3
WSCAD
  4

1001
ACAD
1000
Arial
1071
        0
  0
STYLE
  5
4E
330
3
100
AcDbSymbolTableRecord
100
AcDbTextStyleTableRecord
  2
WSCAD_SPEZI
 70
     0
 40
0.0
 41
1.0
 50
0.0
 71
     0
 42
0.2
  3
WSCAD
  4

1001
ACAD
1000
Arial
1071
        0
  0
ENDTAB
  0
TABLE
  2
VIEW
  5
6
330
0
100
AcDbSymbolTable
 70
     0
  0
ENDTAB
  0
TABLE
  2
UCS
  5
7
330
0
100
AcDbSymbolTable
 70
     0
  0
ENDTAB
  0
TABLE
  2
APPID
  5
9
330
0
100
AcDbSymbolTable
 70
     1
  0
APPID
  5
12
330
9
100
AcDbSymbolTableRecord
100
AcDbRegAppTableRecord
  2
ACAD
 70
     0
  0
ENDTAB
  0
TABLE
  2
DIMSTYLE
  5
A
330
0
100
AcDbSymbolTable
 70
     1
100
AcDbDimStyleTable
  0
DIMSTYLE
105
27
330
A
100
AcDbSymbolTableRecord
100
AcDbDimStyleTableRecord
  2
ISO-25
 70
     0
 41
2.5
 42
0.625
 43
3.75
 44
1.25
 73
     0
 74
     0
 77
     1
 78
     8
140
2.5
141
2.5
143
0.03937007874016
147
0.625
171
     3
172
     1
271
     2
272
     2
274
     3
278
    44
283
     0
284
     8
340
11
  0
ENDTAB
  0
TABLE
  2
BLOCK_RECORD
  5
1
330
0
100
AcDbSymbolTable
 70
     1
  0
BLOCK_RECORD
  5
1F
330
1
100
AcDbSymbolTableRecord
100
AcDbBlockTableRecord
  2
*Model_Space
340
22
  0
BLOCK_RECORD
  5
1B
330
1
100
AcDbSymbolTableRecord
100
AcDbBlockTableRecord
  2
*Paper_Space
340
1E
  0
BLOCK_RECORD
  5
23
330
1
100
AcDbSymbolTableRecord
100
AcDbBlockTableRecord
  2
*Paper_Space0
340
26
  0
ENDTAB
  0
ENDSEC
  0
SECTION
  2
BLOCKS
  0
BLOCK
  5
20
330
1F
100
AcDbEntity
  8
0
100
AcDbBlockBegin
  2
*Model_Space
 70
     0
 10
0.0
 20
0.0
 30
0.0
  3
*Model_Space
  1

  0
ENDBLK
  5
21
330
1F
100
AcDbEntity
  8
0
100
AcDbBlockEnd
  0
BLOCK
  5
1C
330
1B
100
AcDbEntity
 67
     1
  8
0
100
AcDbBlockBegin
  2
*Paper_Space
 70
     0
 10
0.0
 20
0.0
 30
0.0
  3
*Paper_Space
  1

  0
ENDBLK
  5
1D
330
1B
100
AcDbEntity
 67
     1
  8
0
100
AcDbBlockEnd
  0
BLOCK
  5
24
330
23
100
AcDbEntity
  8
0
100
AcDbBlockBegin
  2
*Paper_Space0
 70
     0
 10
0.0
 20
0.0
 30
0.0
  3
*Paper_Space0
  1

  0
ENDBLK
  5
25
330
23
100
AcDbEntity
  8
0
100
AcDbBlockEnd
  0
ENDSEC
  0
SECTION
  2
ENTITIES
  0
TEXT
  5
71
330
1F
100
AcDbEntity
  8
0
 62
     7
100
AcDbText
 10
3.0
 20
223.0
 30
0.0
 40
1.5
  1
+24V
  7
WSCAD_ALLGTEXT
100
AcDbText
  0
TEXT
  5
72
330
1F
100
AcDbEntity
  8
0
 62
     7
100
AcDbText
 10
3.0
 20
220.5
 30
0.0
 40
1.5
  1
0V=
  7
WSCAD_ALLGTEXT
100
AcDbText
  0
TEXT
  5
73
330
1F
100
AcDbEntity
  8
0
 62
     7
100
AcDbText
 10
3.0
 20
218.0
 30
0.0
 40
1.5
  1
BUS-A
  7
WSCAD_ALLGTEXT
100
AcDbText
  0
TEXT
  5
74
330
1F
100
AcDbEntity
  8
0
 62
     7
100
AcDbText
 10
3.0
 20
215.5
 30
0.0
 40
1.5
  1
BUS-B
  7
WSCAD_ALLGTEXT
100
AcDbText
  0
CIRCLE
  5
75
330
1F
100
AcDbEntity
  8
0
 62
     3
100
AcDbCircle
 10
12.5
 20
222.5
 30
0.0
 40
0.25
  0
CIRCLE
  5
76
330
1F
100
AcDbEntity
  8
0
 62
     3
100
AcDbCircle
 10
12.5
 20
222.5
 30
0.0
 40
0.5
  0
POLYLINE
  5
77
330
1F
100
AcDbEntity
  8
0
  6
Continuous
 62
   152
100
AcDb2dPolyline
 66
     1
 10
0.0
 20
0.0
 30
0.0
  0
VERTEX
  5
78
330
77
100
AcDbEntity
  8
0
  6
Continuous
 62
   152
100
AcDbVertex
100
AcDb2dVertex
 10
12.5
 20
222.5
 30
0.0
  0
VERTEX
  5
79
330
77
100
AcDbEntity
  8
0
  6
Continuous
 62
   152
100
AcDbVertex
100
AcDb2dVertex
 10
12.5
 20
185.0
 30
0.0
  0
SEQEND
  5
7A
330
77
100
AcDbEntity
  8
0
  6
Continuous
 62
   152
  0
CIRCLE
  5
7B
330
1F
100
AcDbEntity
  8
0
 62
     3
100
AcDbCircle
 10
17.5
 20
220.0
 30
0.0
 40
0.25
  0
CIRCLE
  5
7C
330
1F
100
AcDbEntity
  8
0
 62
     3
100
AcDbCircle
 10
17.5
 20
220.0
 30
0.0
 40
0.5
  0
POLYLINE
  5
7D
330
1F
100
AcDbEntity
  8
0
  6
Continuous
 62
   152
100
AcDb2dPolyline
 66
     1
 10
0.0
 20
0.0
 30
0.0
  0
VERTEX
  5
7E
330
7D
100
AcDbEntity
  8
0
  6
Continuous
 62
   152
100
AcDbVertex
100
AcDb2dVertex
 10
17.5
 20
220.0
 30
0.0
  0
VERTEX
  5
7F
330
7D
100
AcDbEntity
  8
0
  6
Continuous
 62
   152
100
AcDbVertex
100
AcDb2dVertex
 10
17.5
 20
185.0
 30
0.0
  0
SEQEND
  5
80
330
7D
100
AcDbEntity
  8
0
  6
Continuous
 62
   152
  0
CIRCLE
  5
81
330
1F
100
AcDbEntity
  8
0
 62
     3
100
AcDbCircle
 10
22.5
 20
217.5
 30
0.0
 40
0.25
  0
CIRCLE
  5
82
330
1F
100
AcDbEntity
  8
0
 62
     3
100
AcDbCircle
 10
22.5
 20
217.5
 30
0.0
 40
0.5
  0
POLYLINE
  5
83
330
1F
100
AcDbEntity
  8
0
  6
Continuous
 62
   152
100
AcDb2dPolyline
 66
     1
 10
0.0
 20
0.0
 30
0.0
  0
VERTEX
  5
84
330
83
100
AcDbEntity
  8
0
  6
Continuous
 62
   152
100
AcDbVertex
100
AcDb2dVertex
 10
22.5
 20
217.5
 30
0.0
  0
VERTEX
  5
85
330
83
100
AcDbEntity
  8
0
  6
Continuous
 62
   152
100
AcDbVertex
100
AcDb2dVertex
 10
22.5
 20
185.0
 30
0.0
  0
SEQEND
  5
86
330
83
100
AcDbEntity
  8
0
  6
Continuous
 62
   152
  0
CIRCLE
  5
87
330
1F
100
AcDbEntity
  8
0
 62
     3
100
AcDbCircle
 10
27.5
 20
215.0
 30
0.0
 40
0.25
  0
CIRCLE
  5
88
330
1F
100
AcDbEntity
  8
0
 62
     3
100
AcDbCircle
 10
27.5
 20
215.0
 30
0.0
 40
0.5
  0
POLYLINE
  5
89
330
1F
100
AcDbEntity
  8
0
  6
Continuous
 62
   152
100
AcDb2dPolyline
 66
     1
 10
0.0
 20
0.0
 30
0.0
  0
VERTEX
  5
8A
330
89
100
AcDbEntity
  8
0
  6
Continuous
 62
   152
100
AcDbVertex
100
AcDb2dVertex
 10
27.5
 20
215.0
 30
0.0
  0
VERTEX
  5
8B
330
89
100
AcDbEntity
  8
0
  6
Continuous
 62
   152
100
AcDbVertex
100
AcDb2dVertex
 10
27.5
 20
185.0
 30
0.0
  0
SEQEND
  5
8C
330
89
100
AcDbEntity
  8
0
  6
Continuous
 62
   152
  0
POLYLINE
  5
8D
330
1F
100
AcDbEntity
  8
0
  6
Continuous
 62
   152
100
AcDb2dPolyline
 66
     1
 10
0.0
 20
0.0
 30
0.0
  0
VERTEX
  5
8E
330
8D
100
AcDbEntity
  8
0
  6
Continuous
 62
   152
100
AcDbVertex
100
AcDb2dVertex
 10
25.0
 20
147.5
 30
0.0
  0
VERTEX
  5
8F
330
8D
100
AcDbEntity
  8
0
  6
Continuous
 62
   152
100
AcDbVertex
100
AcDb2dVertex
 10
25.0
 20
140.0
 30
0.0
  0
SEQEND
  5
90
330
8D
100
AcDbEntity
  8
0
  6
Continuous
 62
   152
  0
TEXT
  5
91
330
1F
100
AcDbEntity
  8
0
 62
     7
100
AcDbText
 10
24.5
 20
140.5
 30
0.0
 40
2.25
  1
L
 50
90.00000000000594
  7
WSCAD_ALLGTEXT
100
AcDbText
  0
POLYLINE
  5
92
330
1F
100
AcDbEntity
  8
0
  6
Continuous
 62
   152
100
AcDb2dPolyline
 66
     1
 10
0.0
 20
0.0
 30
0.0
  0
VERTEX
  5
93
330
92
100
AcDbEntity
  8
0
  6
Continuous
 62
   152
100
AcDbVertex
100
AcDb2dVertex
 10
50.0
 20
147.5
 30
0.0
  0
VERTEX
  5
94
330
92
100
AcDbEntity
  8
0
  6
Continuous
 62
   152
100
AcDbVertex
100
AcDb2dVertex
 10
50.0
 20
140.0
 30
0.0
  0
SEQEND
  5
95
330
92
100
AcDbEntity
  8
0
  6
Continuous
 62
   152
  0
TEXT
  5
96
330
1F
100
AcDbEntity
  8
0
 62
     7
100
AcDbText
 10
49.5
 20
140.5
 30
0.0
 40
2.25
  1
L
 50
90.00000000000594
  7
WSCAD_ALLGTEXT
100
AcDbText
  0
POLYLINE
  5
97
330
1F
100
AcDbEntity
  8
0
  6
Continuous
 62
   152
100
AcDb2dPolyline
 66
     1
 10
0.0
 20
0.0
 30
0.0
  0
VERTEX
  5
98
330
97
100
AcDbEntity
  8
0
  6
Continuous
 62
   152
100
AcDbVertex
100
AcDb2dVertex
 10
62.5
 20
120.0
 30
0.0
  0
VERTEX
  5
99
330
97
100
AcDbEntity
  8
0
  6
Continuous
 62
   152
100
AcDbVertex
100
AcDb2dVertex
 10
62.5
 20
147.5
 30
0.0
  0
SEQEND
  5
9A
330
97
100
AcDbEntity
  8
0
  6
Continuous
 62
   152
  0
TEXT
  5
9B
330
1F
100
AcDbEntity
  8
0
 62
     7
100
AcDbText
 10
62.0
 20
105.5
 30
0.0
 40
2.25
  1
N
 50
90.00000000000594
  7
WSCAD_ALLGTEXT
100
AcDbText
  0
POLYLINE
  5
9C
330
1F
100
AcDbEntity
  8
0
  6
LONGDASH
 62
   152
100
AcDb2dPolyline
 66
     1
 10
0.0
 20
0.0
 30
0.0
  0
VERTEX
  5
9D
330
9C
100
AcDbEntity
  8
0
  6
LONGDASH
 62
   152
100
AcDbVertex
100
AcDb2dVertex
 10
62.5
 20
110.0
 30
0.0
  0
VERTEX
  5
9E
330
9C
100
AcDbEntity
  8
0
  6
LONGDASH
 62
   152
100
AcDbVertex
100
AcDb2dVertex
 10
62.5
 20
105.0
 30
0.0
  0
SEQEND
  5
9F
330
9C
100
AcDbEntity
  8
0
  6
LONGDASH
 62
   152
  0
POLYLINE
  5
A0
330
1F
100
AcDbEntity
  8
0
  6
Continuous
 62
   152
100
AcDb2dPolyline
 66
     1
 10
0.0
 20
0.0
 30
0.0
  0
VERTEX
  5
A1
330
A0
100
AcDbEntity
  8
0
  6
Continuous
 62
   152
100
AcDbVertex
100
AcDb2dVertex
 10
75.0
 20
147.5
 30
0.0
  0
VERTEX
  5
A2
330
A0
100
AcDbEntity
  8
0
  6
Continuous
 62
   152
100
AcDbVertex
100
AcDb2dVertex
 10
75.0
 20
140.0
 30
0.0
  0
SEQEND
  5
A3
330
A0
100
AcDbEntity
  8
0
  6
Continuous
 62
   152
  0
TEXT
  5
A4
330
1F
100
AcDbEntity
  8
0
 62
     7
100
AcDbText
 10
74.5
 20
140.5
 30
0.0
 40
2.25
  1
L
 50
90.00000000000594
  7
WSCAD_ALLGTEXT
100
AcDbText
  0
POLYLINE
  5
A5
330
1F
100
AcDbEntity
  8
0
  6
Continuous
 62
   152
100
AcDb2dPolyline
 66
     1
 10
0.0
 20
0.0
 30
0.0
  0
VERTEX
  5
A6
330
A5
100
AcDbEntity
  8
0
  6
Continuous
 62
   152
100
AcDbVertex
100
AcDb2dVertex
 10
87.5
 20
120.0
 30
0.0
  0
VERTEX
  5
A7
330
A5
100
AcDbEntity
  8
0
  6
Continuous
 62
   152
100
AcDbVertex
100
AcDb2dVertex
 10
87.5
 20
147.5
 30
0.0
  0
SEQEND
  5
A8
330
A5
100
AcDbEntity
  8
0
  6
Continuous
 62
   152
  0
TEXT
  5
A9
330
1F
100
AcDbEntity
  8
0
 62
     7
100
AcDbText
 10
87.0
 20
105.5
 30
0.0
 40
2.25
  1
N
 50
90.00000000000594
  7
WSCAD_ALLGTEXT
100
AcDbText
  0
POLYLINE
  5
AA
330
1F
100
AcDbEntity
  8
0
  6
LONGDASH
 62
   152
100
AcDb2dPolyline
 66
     1
 10
0.0
 20
0.0
 30
0.0
  0
VERTEX
  5
AB
330
AA
100
AcDbEntity
  8
0
  6
LONGDASH
 62
   152
100
AcDbVertex
100
AcDb2dVertex
 10
87.5
 20
110.0
 30
0.0
  0
VERTEX
  5
AC
330
AA
100
AcDbEntity
  8
0
  6
LONGDASH
 62
   152
100
AcDbVertex
100
AcDb2dVertex
 10
87.5
 20
105.0
 30
0.0
  0
SEQEND
  5
AD
330
AA
100
AcDbEntity
  8
0
  6
LONGDASH
 62
   152
  0
POLYLINE
  5
AE
330
1F
100
AcDbEntity
  8
0
  6
Continuous
 62
   152
100
AcDb2dPolyline
 66
     1
 10
0.0
 20
0.0
 30
0.0
  0
VERTEX
  5
AF
330
AE
100
AcDbEntity
  8
0
  6
Continuous
 62
   152
100
AcDbVertex
100
AcDb2dVertex
 10
100.0
 20
147.5
 30
0.0
  0
VERTEX
  5
B0
330
AE
100
AcDbEntity
  8
0
  6
Continuous
 62
   152
100
AcDbVertex
100
AcDb2dVertex
 10
100.0
 20
140.0
 30
0.0
  0
SEQEND
  5
B1
330
AE
100
AcDbEntity
  8
0
  6
Continuous
 62
   152
  0
TEXT
  5
B2
330
1F
100
AcDbEntity
  8
0
 62
     7
100
AcDbText
 10
99.5
 20
140.5
 30
0.0
 40
2.25
  1
L
 50
90.00000000000594
  7
WSCAD_ALLGTEXT
100
AcDbText
  0
CIRCLE
  5
B4
102
{ACAD_REACTORS
330
B3
102
}
330
1F
100
AcDbEntity
  8
0
 62
    62
100
AcDbCircle
 10
62.5
 20
115.0
 30
0.0
 40
1.75
  0
POLYLINE
  5
B5
102
{ACAD_REACTORS
330
B3
102
}
330
1F
100
AcDbEntity
  8
0
  6
Continuous
 62
    62
100
AcDb2dPolyline
 66
     1
 10
0.0
 20
0.0
 30
0.0
  0
VERTEX
  5
B6
330
B5
100
AcDbEntity
  8
0
  6
Continuous
 62
    62
100
AcDbVertex
100
AcDb2dVertex
 10
61.25
 20
113.75
 30
0.0
  0
VERTEX
  5
B7
330
B5
100
AcDbEntity
  8
0
  6
Continuous
 62
    62
100
AcDbVertex
100
AcDb2dVertex
 10
63.75
 20
116.25
 30
0.0
  0
SEQEND
  5
B8
330
B5
100
AcDbEntity
  8
0
  6
Continuous
 62
    62
  0
POLYLINE
  5
B9
102
{ACAD_REACTORS
330
B3
102
}
330
1F
100
AcDbEntity
  8
0
  6
Continuous
 62
    62
100
AcDb2dPolyline
 66
     1
 10
0.0
 20
0.0
 30
0.0
  0
VERTEX
  5
BA
330
B9
100
AcDbEntity
  8
0
  6
Continuous
 62
    62
100
AcDbVertex
100
AcDb2dVertex
 10
61.25
 20
116.25
 30
0.0
  0
VERTEX
  5
BB
330
B9
100
AcDbEntity
  8
0
  6
Continuous
 62
    62
100
AcDbVertex
100
AcDb2dVertex
 10
63.75
 20
113.75
 30
0.0
  0
SEQEND
  5
BC
330
B9
100
AcDbEntity
  8
0
  6
Continuous
 62
    62
  0
POLYLINE
  5
BD
102
{ACAD_REACTORS
330
B3
102
}
330
1F
100
AcDbEntity
  8
0
  6
Continuous
 62
    62
100
AcDb2dPolyline
 66
     1
 10
0.0
 20
0.0
 30
0.0
  0
VERTEX
  5
BE
330
BD
100
AcDbEntity
  8
0
  6
Continuous
 62
    62
100
AcDbVertex
100
AcDb2dVertex
 10
62.5
 20
120.0
 30
0.0
  0
VERTEX
  5
BF
330
BD
100
AcDbEntity
  8
0
  6
Continuous
 62
    62
100
AcDbVertex
100
AcDb2dVertex
 10
62.5
 20
116.75
 30
0.0
  0
SEQEND
  5
C0
330
BD
100
AcDbEntity
  8
0
  6
Continuous
 62
    62
  0
POLYLINE
  5
C1
102
{ACAD_REACTORS
330
B3
102
}
330
1F
100
AcDbEntity
  8
0
  6
Continuous
 62
    62
100
AcDb2dPolyline
 66
     1
 10
0.0
 20
0.0
 30
0.0
  0
VERTEX
  5
C2
330
C1
100
AcDbEntity
  8
0
  6
Continuous
 62
    62
100
AcDbVertex
100
AcDb2dVertex
 10
62.5
 20
110.0
 30
0.0
  0
VERTEX
  5
C3
330
C1
100
AcDbEntity
  8
0
  6
Continuous
 62
    62
100
AcDbVertex
100
AcDb2dVertex
 10
62.5
 20
113.25
 30
0.0
  0
SEQEND
  5
C4
330
C1
100
AcDbEntity
  8
0
  6
Continuous
 62
    62
  0
TEXT
  5
C5
102
{ACAD_REACTORS
330
B3
102
}
330
1F
100
AcDbEntity
  8
0
 62
     1
100
AcDbText
 10
64.0
 20
109.0
 30
0.0
 40
1.5
  1
 
  7
WSCAD_ALLGTEXT
100
AcDbText
  0
CIRCLE
  5
C7
102
{ACAD_REACTORS
330
C6
102
}
330
1F
100
AcDbEntity
  8
0
 62
    62
100
AcDbCircle
 10
87.5
 20
115.0
 30
0.0
 40
1.75
  0
POLYLINE
  5
C8
102
{ACAD_REACTORS
330
C6
102
}
330
1F
100
AcDbEntity
  8
0
  6
Continuous
 62
    62
100
AcDb2dPolyline
 66
     1
 10
0.0
 20
0.0
 30
0.0
  0
VERTEX
  5
C9
330
C8
100
AcDbEntity
  8
0
  6
Continuous
 62
    62
100
AcDbVertex
100
AcDb2dVertex
 10
86.25
 20
113.75
 30
0.0
  0
VERTEX
  5
CA
330
C8
100
AcDbEntity
  8
0
  6
Continuous
 62
    62
100
AcDbVertex
100
AcDb2dVertex
 10
88.75
 20
116.25
 30
0.0
  0
SEQEND
  5
CB
330
C8
100
AcDbEntity
  8
0
  6
Continuous
 62
    62
  0
POLYLINE
  5
CC
102
{ACAD_REACTORS
330
C6
102
}
330
1F
100
AcDbEntity
  8
0
  6
Continuous
 62
    62
100
AcDb2dPolyline
 66
     1
 10
0.0
 20
0.0
 30
0.0
  0
VERTEX
  5
CD
330
CC
100
AcDbEntity
  8
0
  6
Continuous
 62
    62
100
AcDbVertex
100
AcDb2dVertex
 10
86.25
 20
116.25
 30
0.0
  0
VERTEX
  5
CE
330
CC
100
AcDbEntity
  8
0
  6
Continuous
 62
    62
100
AcDbVertex
100
AcDb2dVertex
 10
88.75
 20
113.75
 30
0.0
  0
SEQEND
  5
CF
330
CC
100
AcDbEntity
  8
0
  6
Continuous
 62
    62
  0
POLYLINE
  5
D0
102
{ACAD_REACTORS
330
C6
102
}
330
1F
100
AcDbEntity
  8
0
  6
Continuous
 62
    62
100
AcDb2dPolyline
 66
     1
 10
0.0
 20
0.0
 30
0.0
  0
VERTEX
  5
D1
330
D0
100
AcDbEntity
  8
0
  6
Continuous
 62
    62
100
AcDbVertex
100
AcDb2dVertex
 10
87.5
 20
120.0
 30
0.0
  0
VERTEX
  5
D2
330
D0
100
AcDbEntity
  8
0
  6
Continuous
 62
    62
100
AcDbVertex
100
AcDb2dVertex
 10
87.5
 20
116.75
 30
0.0
  0
SEQEND
  5
D3
330
D0
100
AcDbEntity
  8
0
  6
Continuous
 62
    62
  0
POLYLINE
  5
D4
102
{ACAD_REACTORS
330
C6
102
}
330
1F
100
AcDbEntity
  8
0
  6
Continuous
 62
    62
100
AcDb2dPolyline
 66
     1
 10
0.0
 20
0.0
 30
0.0
  0
VERTEX
  5
D5
330
D4
100
AcDbEntity
  8
0
  6
Continuous
 62
    62
100
AcDbVertex
100
AcDb2dVertex
 10
87.5
 20
110.0
 30
0.0
  0
VERTEX
  5
D6
330
D4
100
AcDbEntity
  8
0
  6
Continuous
 62
    62
100
AcDbVertex
100
AcDb2dVertex
 10
87.5
 20
113.25
 30
0.0
  0
SEQEND
  5
D7
330
D4
100
AcDbEntity
  8
0
  6
Continuous
 62
    62
  0
TEXT
  5
D8
102
{ACAD_REACTORS
330
C6
102
}
330
1F
100
AcDbEntity
  8
0
 62
     1
100
AcDbText
 10
89.0
 20
109.0
 30
0.0
 40
1.5
  1
 
  7
WSCAD_ALLGTEXT
100
AcDbText
  0
POLYLINE
  5
D9
330
1F
100
AcDbEntity
  8
0
  6
Continuous
 62
   152
100
AcDb2dPolyline
 66
     1
 10
0.0
 20
0.0
 30
0.0
  0
VERTEX
  5
DA
330
D9
100
AcDbEntity
  8
0
  6
Continuous
 62
   152
100
AcDbVertex
100
AcDb2dVertex
 10
2.5
 20
215.0
 30
0.0
  0
VERTEX
  5
DB
330
D9
100
AcDbEntity
  8
0
  6
Continuous
 62
   152
100
AcDbVertex
100
AcDb2dVertex
 10
205.0
 20
215.0
 30
0.0
  0
SEQEND
  5
DC
330
D9
100
AcDbEntity
  8
0
  6
Continuous
 62
   152
  0
POLYLINE
  5
DD
330
1F
100
AcDbEntity
  8
0
  6
Continuous
 62
   152
100
AcDb2dPolyline
 66
     1
 10
0.0
 20
0.0
 30
0.0
  0
VERTEX
  5
DE
330
DD
100
AcDbEntity
  8
0
  6
Continuous
 62
   152
100
AcDbVertex
100
AcDb2dVertex
 10
2.5
 20
217.5
 30
0.0
  0
VERTEX
  5
DF
330
DD
100
AcDbEntity
  8
0
  6
Continuous
 62
   152
100
AcDbVertex
100
AcDb2dVertex
 10
205.0
 20
217.5
 30
0.0
  0
SEQEND
  5
E0
330
DD
100
AcDbEntity
  8
0
  6
Continuous
 62
   152
  0
POLYLINE
  5
E1
330
1F
100
AcDbEntity
  8
0
  6
Continuous
 62
   152
100
AcDb2dPolyline
 66
     1
 10
0.0
 20
0.0
 30
0.0
  0
VERTEX
  5
E2
330
E1
100
AcDbEntity
  8
0
  6
Continuous
 62
   152
100
AcDbVertex
100
AcDb2dVertex
 10
2.5
 20
220.0
 30
0.0
  0
VERTEX
  5
E3
330
E1
100
AcDbEntity
  8
0
  6
Continuous
 62
   152
100
AcDbVertex
100
AcDb2dVertex
 10
205.0
 20
220.0
 30
0.0
  0
SEQEND
  5
E4
330
E1
100
AcDbEntity
  8
0
  6
Continuous
 62
   152
  0
POLYLINE
  5
E5
330
1F
100
AcDbEntity
  8
0
  6
Continuous
 62
   152
100
AcDb2dPolyline
 66
     1
 10
0.0
 20
0.0
 30
0.0
  0
VERTEX
  5
E6
330
E5
100
AcDbEntity
  8
0
  6
Continuous
 62
   152
100
AcDbVertex
100
AcDb2dVertex
 10
2.5
 20
222.5
 30
0.0
  0
VERTEX
  5
E7
330
E5
100
AcDbEntity
  8
0
  6
Continuous
 62
   152
100
AcDbVertex
100
AcDb2dVertex
 10
205.0
 20
222.5
 30
0.0
  0
SEQEND
  5
E8
330
E5
100
AcDbEntity
  8
0
  6
Continuous
 62
   152
  0
POLYLINE
  5
E9
330
1F
100
AcDbEntity
  8
0
  6
Continuous
 62
   152
100
AcDb2dPolyline
 66
     1
 10
0.0
 20
0.0
 30
0.0
  0
VERTEX
  5
EA
330
E9
100
AcDbEntity
  8
0
  6
Continuous
 62
   152
100
AcDbVertex
100
AcDb2dVertex
 10
42.5
 20
187.5
 30
0.0
  0
VERTEX
  5
EB
330
E9
100
AcDbEntity
  8
0
  6
Continuous
 62
   152
100
AcDbVertex
100
AcDb2dVertex
 10
42.5
 20
185.0
 30
0.0
  0
SEQEND
  5
EC
330
E9
100
AcDbEntity
  8
0
  6
Continuous
 62
   152
  0
POLYLINE
  5
ED
330
1F
100
AcDbEntity
  8
0
  6
Continuous
 62
   152
100
AcDb2dPolyline
 66
     1
 10
0.0
 20
0.0
 30
0.0
  0
VERTEX
  5
EE
330
ED
100
AcDbEntity
  8
0
  6
Continuous
 62
   152
100
AcDbVertex
100
AcDb2dVertex
 10
52.5
 20
187.5
 30
0.0
  0
VERTEX
  5
EF
330
ED
100
AcDbEntity
  8
0
  6
Continuous
 62
   152
100
AcDbVertex
100
AcDb2dVertex
 10
52.5
 20
185.0
 30
0.0
  0
SEQEND
  5
F0
330
ED
100
AcDbEntity
  8
0
  6
Continuous
 62
   152
  0
POLYLINE
  5
F1
330
1F
100
AcDbEntity
  8
0
  6
Continuous
 62
   152
100
AcDb2dPolyline
 66
     1
 10
0.0
 20
0.0
 30
0.0
  0
VERTEX
  5
F2
330
F1
100
AcDbEntity
  8
0
  6
Continuous
 62
   152
100
AcDbVertex
100
AcDb2dVertex
 10
62.5
 20
187.5
 30
0.0
  0
VERTEX
  5
F3
330
F1
100
AcDbEntity
  8
0
  6
Continuous
 62
   152
100
AcDbVertex
100
AcDb2dVertex
 10
62.5
 20
185.0
 30
0.0
  0
SEQEND
  5
F4
330
F1
100
AcDbEntity
  8
0
  6
Continuous
 62
   152
  0
POLYLINE
  5
F5
330
1F
100
AcDbEntity
  8
0
  6
Continuous
 62
   152
100
AcDb2dPolyline
 66
     1
 10
0.0
 20
0.0
 30
0.0
  0
VERTEX
  5
F6
330
F5
100
AcDbEntity
  8
0
  6
Continuous
 62
   152
100
AcDbVertex
100
AcDb2dVertex
 10
72.5
 20
187.5
 30
0.0
  0
VERTEX
  5
F7
330
F5
100
AcDbEntity
  8
0
  6
Continuous
 62
   152
100
AcDbVertex
100
AcDb2dVertex
 10
72.5
 20
185.0
 30
0.0
  0
SEQEND
  5
F8
330
F5
100
AcDbEntity
  8
0
  6
Continuous
 62
   152
  0
POLYLINE
  5
F9
330
1F
100
AcDbEntity
  8
0
  6
Continuous
 62
   152
100
AcDb2dPolyline
 66
     1
 10
0.0
 20
0.0
 30
0.0
  0
VERTEX
  5
FA
330
F9
100
AcDbEntity
  8
0
  6
Continuous
 62
   152
100
AcDbVertex
100
AcDb2dVertex
 10
102.5
 20
192.5
 30
0.0
  0
VERTEX
  5
FB
330
F9
100
AcDbEntity
  8
0
  6
Continuous
 62
   152
100
AcDbVertex
100
AcDb2dVertex
 10
102.5
 20
185.0
 30
0.0
  0
SEQEND
  5
FC
330
F9
100
AcDbEntity
  8
0
  6
Continuous
 62
   152
  0
POLYLINE
  5
FD
330
1F
100
AcDbEntity
  8
0
  6
Continuous
 62
   152
100
AcDb2dPolyline
 66
     1
 10
0.0
 20
0.0
 30
0.0
  0
VERTEX
  5
FE
330
FD
100
AcDbEntity
  8
0
  6
Continuous
 62
   152
100
AcDbVertex
100
AcDb2dVertex
 10
92.5
 20
192.5
 30
0.0
  0
VERTEX
  5
FF
330
FD
100
AcDbEntity
  8
0
  6
Continuous
 62
   152
100
AcDbVertex
100
AcDb2dVertex
 10
92.5
 20
185.0
 30
0.0
  0
SEQEND
  5
100
330
FD
100
AcDbEntity
  8
0
  6
Continuous
 62
   152
  0
POLYLINE
  5
102
102
{ACAD_REACTORS
330
101
102
}
330
1F
100
AcDbEntity
  8
0
  6
Continuous
 62
    62
100
AcDb2dPolyline
 66
     1
 10
0.0
 20
0.0
 30
0.0
  0
VERTEX
  5
103
330
102
100
AcDbEntity
  8
0
  6
Continuous
 62
    62
100
AcDbVertex
100
AcDb2dVertex
 10
38.5
 20
198.5
 30
0.0
  0
VERTEX
  5
104
330
102
100
AcDbEntity
  8
0
  6
Continuous
 62
    62
100
AcDbVertex
100
AcDb2dVertex
 10
38.0
 20
198.5
 30
0.0
  0
VERTEX
  5
105
330
102
100
AcDbEntity
  8
0
  6
Continuous
 62
    62
100
AcDbVertex
100
AcDb2dVertex
 10
38.0
 20
198.5
 30
0.0
  0
VERTEX
  5
106
330
102
100
AcDbEntity
  8
0
  6
Continuous
 62
    62
100
AcDbVertex
100
AcDb2dVertex
 10
38.0
 20
196.5
 30
0.0
  0
VERTEX
  5
107
330
102
100
AcDbEntity
  8
0
  6
Continuous
 62
    62
100
AcDbVertex
100
AcDb2dVertex
 10
38.5
 20
196.5
 30
0.0
  0
SEQEND
  5
108
330
102
100
AcDbEntity
  8
0
  6
Continuous
 62
    62
  0
POLYLINE
  5
109
102
{ACAD_REACTORS
330
101
102
}
330
1F
100
AcDbEntity
  8
0
  6
Continuous
 62
    62
100
AcDb2dPolyline
 66
     1
 10
0.0
 20
0.0
 30
0.0
  0
VERTEX
  5
10A
330
109
100
AcDbEntity
  8
0
  6
Continuous
 62
    62
100
AcDbVertex
100
AcDb2dVertex
 10
42.5
 20
212.5
 30
0.0
  0
VERTEX
  5
10B
330
109
100
AcDbEntity
  8
0
  6
Continuous
 62
    62
100
AcDbVertex
100
AcDb2dVertex
 10
42.5
 20
198.75
 30
0.0
  0
SEQEND
  5
10C
330
109
100
AcDbEntity
  8
0
  6
Continuous
 62
    62
  0
POLYLINE
  5
10D
102
{ACAD_REACTORS
330
101
102
}
330
1F
100
AcDbEntity
  8
0
  6
DASHSPACE
 62
    62
100
AcDb2dPolyline
 66
     1
 10
0.0
 20
0.0
 30
0.0
  0
VERTEX
  5
10E
330
10D
100
AcDbEntity
  8
0
  6
DASHSPACE
 62
    62
100
AcDbVertex
100
AcDb2dVertex
 10
41.5
 20
197.5
 30
0.0
  0
VERTEX
  5
10F
330
10D
100
AcDbEntity
  8
0
  6
DASHSPACE
 62
    62
100
AcDbVertex
100
AcDb2dVertex
 10
38.0
 20
197.5
 30
0.0
  0
SEQEND
  5
110
330
10D
100
AcDbEntity
  8
0
  6
DASHSPACE
 62
    62
  0
POLYLINE
  5
111
102
{ACAD_REACTORS
330
101
102
}
330
1F
100
AcDbEntity
  8
0
  6
Continuous
 62
    62
100
AcDb2dPolyline
 66
     1
 10
0.0
 20
0.0
 30
0.0
  0
VERTEX
  5
112
330
111
100
AcDbEntity
  8
0
  6
Continuous
 62
    62
100
AcDbVertex
100
AcDb2dVertex
 10
42.5
 20
187.5
 30
0.0
  0
VERTEX
  5
113
330
111
100
AcDbEntity
  8
0
  6
Continuous
 62
    62
100
AcDbVertex
100
AcDb2dVertex
 10
42.5
 20
196.0
 30
0.0
  0
VERTEX
  5
114
330
111
100
AcDbEntity
  8
0
  6
Continuous
 62
    62
100
AcDbVertex
100
AcDb2dVertex
 10
41.25
 20
199.25
 30
0.0
  0
SEQEND
  5
115
330
111
100
AcDbEntity
  8
0
  6
Continuous
 62
    62
  0
POLYLINE
  5
117
102
{ACAD_REACTORS
330
116
102
}
330
1F
100
AcDbEntity
  8
0
  6
Continuous
 62
    62
100
AcDb2dPolyline
 66
     1
 10
0.0
 20
0.0
 30
0.0
  0
VERTEX
  5
118
330
117
100
AcDbEntity
  8
0
  6
Continuous
 62
    62
100
AcDbVertex
100
AcDb2dVertex
 10
48.5
 20
198.5
 30
0.0
  0
VERTEX
  5
119
330
117
100
AcDbEntity
  8
0
  6
Continuous
 62
    62
100
AcDbVertex
100
AcDb2dVertex
 10
48.0
 20
198.5
 30
0.0
  0
VERTEX
  5
11A
330
117
100
AcDbEntity
  8
0
  6
Continuous
 62
    62
100
AcDbVertex
100
AcDb2dVertex
 10
48.0
 20
198.5
 30
0.0
  0
VERTEX
  5
11B
330
117
100
AcDbEntity
  8
0
  6
Continuous
 62
    62
100
AcDbVertex
100
AcDb2dVertex
 10
48.0
 20
196.5
 30
0.0
  0
VERTEX
  5
11C
330
117
100
AcDbEntity
  8
0
  6
Continuous
 62
    62
100
AcDbVertex
100
AcDb2dVertex
 10
48.5
 20
196.5
 30
0.0
  0
SEQEND
  5
11D
330
117
100
AcDbEntity
  8
0
  6
Continuous
 62
    62
  0
POLYLINE
  5
11E
102
{ACAD_REACTORS
330
116
102
}
330
1F
100
AcDbEntity
  8
0
  6
Continuous
 62
    62
100
AcDb2dPolyline
 66
     1
 10
0.0
 20
0.0
 30
0.0
  0
VERTEX
  5
11F
330
11E
100
AcDbEntity
  8
0
  6
Continuous
 62
    62
100
AcDbVertex
100
AcDb2dVertex
 10
52.5
 20
212.5
 30
0.0
  0
VERTEX
  5
120
330
11E
100
AcDbEntity
  8
0
  6
Continuous
 62
    62
100
AcDbVertex
100
AcDb2dVertex
 10
52.5
 20
198.75
 30
0.0
  0
SEQEND
  5
121
330
11E
100
AcDbEntity
  8
0
  6
Continuous
 62
    62
  0
POLYLINE
  5
122
102
{ACAD_REACTORS
330
116
102
}
330
1F
100
AcDbEntity
  8
0
  6
DASHSPACE
 62
    62
100
AcDb2dPolyline
 66
     1
 10
0.0
 20
0.0
 30
0.0
  0
VERTEX
  5
123
330
122
100
AcDbEntity
  8
0
  6
DASHSPACE
 62
    62
100
AcDbVertex
100
AcDb2dVertex
 10
51.5
 20
197.5
 30
0.0
  0
VERTEX
  5
124
330
122
100
AcDbEntity
  8
0
  6
DASHSPACE
 62
    62
100
AcDbVertex
100
AcDb2dVertex
 10
48.0
 20
197.5
 30
0.0
  0
SEQEND
  5
125
330
122
100
AcDbEntity
  8
0
  6
DASHSPACE
 62
    62
  0
POLYLINE
  5
126
102
{ACAD_REACTORS
330
116
102
}
330
1F
100
AcDbEntity
  8
0
  6
Continuous
 62
    62
100
AcDb2dPolyline
 66
     1
 10
0.0
 20
0.0
 30
0.0
  0
VERTEX
  5
127
330
126
100
AcDbEntity
  8
0
  6
Continuous
 62
    62
100
AcDbVertex
100
AcDb2dVertex
 10
52.5
 20
187.5
 30
0.0
  0
VERTEX
  5
128
330
126
100
AcDbEntity
  8
0
  6
Continuous
 62
    62
100
AcDbVertex
100
AcDb2dVertex
 10
52.5
 20
196.0
 30
0.0
  0
VERTEX
  5
129
330
126
100
AcDbEntity
  8
0
  6
Continuous
 62
    62
100
AcDbVertex
100
AcDb2dVertex
 10
51.25
 20
199.25
 30
0.0
  0
SEQEND
  5
12A
330
126
100
AcDbEntity
  8
0
  6
Continuous
 62
    62
  0
POLYLINE
  5
12C
102
{ACAD_REACTORS
330
12B
102
}
330
1F
100
AcDbEntity
  8
0
  6
Continuous
 62
    62
100
AcDb2dPolyline
 66
     1
 10
0.0
 20
0.0
 30
0.0
  0
VERTEX
  5
12D
330
12C
100
AcDbEntity
  8
0
  6
Continuous
 62
    62
100
AcDbVertex
100
AcDb2dVertex
 10
58.5
 20
198.5
 30
0.0
  0
VERTEX
  5
12E
330
12C
100
AcDbEntity
  8
0
  6
Continuous
 62
    62
100
AcDbVertex
100
AcDb2dVertex
 10
58.0
 20
198.5
 30
0.0
  0
VERTEX
  5
12F
330
12C
100
AcDbEntity
  8
0
  6
Continuous
 62
    62
100
AcDbVertex
100
AcDb2dVertex
 10
58.0
 20
198.5
 30
0.0
  0
VERTEX
  5
130
330
12C
100
AcDbEntity
  8
0
  6
Continuous
 62
    62
100
AcDbVertex
100
AcDb2dVertex
 10
58.0
 20
196.5
 30
0.0
  0
VERTEX
  5
131
330
12C
100
AcDbEntity
  8
0
  6
Continuous
 62
    62
100
AcDbVertex
100
AcDb2dVertex
 10
58.5
 20
196.5
 30
0.0
  0
SEQEND
  5
132
330
12C
100
AcDbEntity
  8
0
  6
Continuous
 62
    62
  0
POLYLINE
  5
133
102
{ACAD_REACTORS
330
12B
102
}
330
1F
100
AcDbEntity
  8
0
  6
Continuous
 62
    62
100
AcDb2dPolyline
 66
     1
 10
0.0
 20
0.0
 30
0.0
  0
VERTEX
  5
134
330
133
100
AcDbEntity
  8
0
  6
Continuous
 62
    62
100
AcDbVertex
100
AcDb2dVertex
 10
62.5
 20
212.5
 30
0.0
  0
VERTEX
  5
135
330
133
100
AcDbEntity
  8
0
  6
Continuous
 62
    62
100
AcDbVertex
100
AcDb2dVertex
 10
62.5
 20
198.75
 30
0.0
  0
SEQEND
  5
136
330
133
100
AcDbEntity
  8
0
  6
Continuous
 62
    62
  0
POLYLINE
  5
137
102
{ACAD_REACTORS
330
12B
102
}
330
1F
100
AcDbEntity
  8
0
  6
DASHSPACE
 62
    62
100
AcDb2dPolyline
 66
     1
 10
0.0
 20
0.0
 30
0.0
  0
VERTEX
  5
138
330
137
100
AcDbEntity
  8
0
  6
DASHSPACE
 62
    62
100
AcDbVertex
100
AcDb2dVertex
 10
61.5
 20
197.5
 30
0.0
  0
VERTEX
  5
139
330
137
100
AcDbEntity
  8
0
  6
DASHSPACE
 62
    62
100
AcDbVertex
100
AcDb2dVertex
 10
58.0
 20
197.5
 30
0.0
  0
SEQEND
  5
13A
330
137
100
AcDbEntity
  8
0
  6
DASHSPACE
 62
    62
  0
POLYLINE
  5
13B
102
{ACAD_REACTORS
330
12B
102
}
330
1F
100
AcDbEntity
  8
0
  6
Continuous
 62
    62
100
AcDb2dPolyline
 66
     1
 10
0.0
 20
0.0
 30
0.0
  0
VERTEX
  5
13C
330
13B
100
AcDbEntity
  8
0
  6
Continuous
 62
    62
100
AcDbVertex
100
AcDb2dVertex
 10
62.5
 20
187.5
 30
0.0
  0
VERTEX
  5
13D
330
13B
100
AcDbEntity
  8
0
  6
Continuous
 62
    62
100
AcDbVertex
100
AcDb2dVertex
 10
62.5
 20
196.0
 30
0.0
  0
VERTEX
  5
13E
330
13B
100
AcDbEntity
  8
0
  6
Continuous
 62
    62
100
AcDbVertex
100
AcDb2dVertex
 10
61.25
 20
199.25
 30
0.0
  0
SEQEND
  5
13F
330
13B
100
AcDbEntity
  8
0
  6
Continuous
 62
    62
  0
POLYLINE
  5
141
102
{ACAD_REACTORS
330
140
102
}
330
1F
100
AcDbEntity
  8
0
  6
Continuous
 62
    62
100
AcDb2dPolyline
 66
     1
 10
0.0
 20
0.0
 30
0.0
  0
VERTEX
  5
142
330
141
100
AcDbEntity
  8
0
  6
Continuous
 62
    62
100
AcDbVertex
100
AcDb2dVertex
 10
72.5
 20
212.5
 30
0.0
  0
VERTEX
  5
143
330
141
100
AcDbEntity
  8
0
  6
Continuous
 62
    62
100
AcDbVertex
100
AcDb2dVertex
 10
72.5
 20
199.0
 30
0.0
  0
SEQEND
  5
144
330
141
100
AcDbEntity
  8
0
  6
Continuous
 62
    62
  0
POLYLINE
  5
145
102
{ACAD_REACTORS
330
140
102
}
330
1F
100
AcDbEntity
  8
0
  6
Continuous
 62
    62
100
AcDb2dPolyline
 66
     1
 10
0.0
 20
0.0
 30
0.0
  0
VERTEX
  5
146
330
145
100
AcDbEntity
  8
0
  6
Continuous
 62
    62
100
AcDbVertex
100
AcDb2dVertex
 10
72.5
 20
187.5
 30
0.0
  0
VERTEX
  5
147
330
145
100
AcDbEntity
  8
0
  6
Continuous
 62
    62
100
AcDbVertex
100
AcDb2dVertex
 10
72.5
 20
196.0
 30
0.0
  0
VERTEX
  5
148
330
145
100
AcDbEntity
  8
0
  6
Continuous
 62
    62
100
AcDbVertex
100
AcDb2dVertex
 10
71.25
 20
199.25
 30
0.0
  0
SEQEND
  5
149
330
145
100
AcDbEntity
  8
0
  6
Continuous
 62
    62
  0
POLYLINE
  5
14A
102
{ACAD_REACTORS
330
140
102
}
330
1F
100
AcDbEntity
  8
0
  6
Continuous
 62
    62
100
AcDb2dPolyline
 66
     1
 10
0.0
 20
0.0
 30
0.0
  0
VERTEX
  5
14B
330
14A
100
AcDbEntity
  8
0
  6
Continuous
 62
    62
100
AcDbVertex
100
AcDb2dVertex
 10
69.25
 20
197.5
 30
0.0
  0
VERTEX
  5
14C
330
14A
100
AcDbEntity
  8
0
  6
Continuous
 62
    62
100
AcDbVertex
100
AcDb2dVertex
 10
69.75
 20
196.5
 30
0.0
  0
VERTEX
  5
14D
330
14A
100
AcDbEntity
  8
0
  6
Continuous
 62
    62
100
AcDbVertex
100
AcDb2dVertex
 10
70.25
 20
197.5
 30
0.0
  0
VERTEX
  5
14E
330
14A
100
AcDbEntity
  8
0
  6
Continuous
 62
    62
100
AcDbVertex
100
AcDb2dVertex
 10
70.5
 20
197.5
 30
0.0
  0
SEQEND
  5
14F
330
14A
100
AcDbEntity
  8
0
  6
Continuous
 62
    62
  0
POLYLINE
  5
150
102
{ACAD_REACTORS
330
140
102
}
330
1F
100
AcDbEntity
  8
0
  6
Continuous
 62
    62
100
AcDb2dPolyline
 66
     1
 10
0.0
 20
0.0
 30
0.0
  0
VERTEX
  5
151
330
150
100
AcDbEntity
  8
0
  6
Continuous
 62
    62
100
AcDbVertex
100
AcDb2dVertex
 10
67.5
 20
196.5
 30
0.0
  0
VERTEX
  5
152
330
150
100
AcDbEntity
  8
0
  6
Continuous
 62
    62
100
AcDbVertex
100
AcDb2dVertex
 10
67.5
 20
198.5
 30
0.0
  0
VERTEX
  5
153
330
150
100
AcDbEntity
  8
0
  6
Continuous
 62
    62
100
AcDbVertex
100
AcDb2dVertex
 10
68.0
 20
198.5
 30
0.0
  0
SEQEND
  5
154
330
150
100
AcDbEntity
  8
0
  6
Continuous
 62
    62
  0
POLYLINE
  5
155
102
{ACAD_REACTORS
330
140
102
}
330
1F
100
AcDbEntity
  8
0
  6
Continuous
 62
    62
100
AcDb2dPolyline
 66
     1
 10
0.0
 20
0.0
 30
0.0
  0
VERTEX
  5
156
330
155
100
AcDbEntity
  8
0
  6
Continuous
 62
    62
100
AcDbVertex
100
AcDb2dVertex
 10
67.5
 20
196.5
 30
0.0
  0
VERTEX
  5
157
330
155
100
AcDbEntity
  8
0
  6
Continuous
 62
    62
100
AcDbVertex
100
AcDb2dVertex
 10
68.0
 20
196.5
 30
0.0
  0
SEQEND
  5
158
330
155
100
AcDbEntity
  8
0
  6
Continuous
 62
    62
  0
POLYLINE
  5
159
102
{ACAD_REACTORS
330
140
102
}
330
1F
100
AcDbEntity
  8
0
  6
DASH
 62
    62
100
AcDb2dPolyline
 66
     1
 10
0.0
 20
0.0
 30
0.0
  0
VERTEX
  5
15A
330
159
100
AcDbEntity
  8
0
  6
DASH
 62
    62
100
AcDbVertex
100
AcDb2dVertex
 10
67.5
 20
197.5
 30
0.0
  0
VERTEX
  5
15B
330
159
100
AcDbEntity
  8
0
  6
DASH
 62
    62
100
AcDbVertex
100
AcDb2dVertex
 10
69.25
 20
197.5
 30
0.0
  0
SEQEND
  5
15C
330
159
100
AcDbEntity
  8
0
  6
DASH
 62
    62
  0
POLYLINE
  5
15D
102
{ACAD_REACTORS
330
140
102
}
330
1F
100
AcDbEntity
  8
0
  6
DASH
 62
    62
100
AcDb2dPolyline
 66
     1
 10
0.0
 20
0.0
 30
0.0
  0
VERTEX
  5
15E
330
15D
100
AcDbEntity
  8
0
  6
DASH
 62
    62
100
AcDbVertex
100
AcDb2dVertex
 10
70.5
 20
197.5
 30
0.0
  0
VERTEX
  5
15F
330
15D
100
AcDbEntity
  8
0
  6
DASH
 62
    62
100
AcDbVertex
100
AcDb2dVertex
 10
71.75
 20
197.5
 30
0.0
  0
SEQEND
  5
160
330
15D
100
AcDbEntity
  8
0
  6
DASH
 62
    62
  0
POLYLINE
  5
162
102
{ACAD_REACTORS
330
161
102
}
330
1F
100
AcDbEntity
  8
0
  6
Continuous
 62
    62
100
AcDb2dPolyline
 66
     1
 10
0.0
 20
0.0
 30
0.0
  0
VERTEX
  5
163
330
162
100
AcDbEntity
  8
0
  6
Continuous
 62
    62
100
AcDbVertex
100
AcDb2dVertex
 10
92.5
 20
192.5
 30
0.0
  0
VERTEX
  5
164
330
162
100
AcDbEntity
  8
0
  6
Continuous
 62
    62
100
AcDbVertex
100
AcDb2dVertex
 10
92.5
 20
195.0
 30
0.0
  0
VERTEX
  5
165
330
162
100
AcDbEntity
  8
0
  6
Continuous
 62
    62
100
AcDbVertex
100
AcDb2dVertex
 10
91.5
 20
197.75
 30
0.0
  0
SEQEND
  5
166
330
162
100
AcDbEntity
  8
0
  6
Continuous
 62
    62
  0
POLYLINE
  5
167
102
{ACAD_REACTORS
330
161
102
}
330
1F
100
AcDbEntity
  8
0
  6
Continuous
 62
    62
100
AcDb2dPolyline
 66
     1
 10
0.0
 20
0.0
 30
0.0
  0
VERTEX
  5
168
330
167
100
AcDbEntity
  8
0
  6
Continuous
 62
    62
100
AcDbVertex
100
AcDb2dVertex
 10
92.5
 20
197.5
 30
0.0
  0
VERTEX
  5
169
330
167
100
AcDbEntity
  8
0
  6
Continuous
 62
    62
100
AcDbVertex
100
AcDb2dVertex
 10
92.5
 20
200.0
 30
0.0
  0
SEQEND
  5
16A
330
167
100
AcDbEntity
  8
0
  6
Continuous
 62
    62
  0
TEXT
  5
16B
102
{ACAD_REACTORS
330
161
102
}
330
1F
100
AcDbEntity
  8
0
 62
     1
100
AcDbText
 10
93.75
 20
200.5
 30
0.0
 40
1.5
  1
 
  7
WSCAD_ALLGTEXT
100
AcDbText
  0
TEXT
  5
16C
102
{ACAD_REACTORS
330
161
102
}
330
1F
100
AcDbEntity
  8
0
 62
     1
100
AcDbText
 10
93.75
 20
193.0
 30
0.0
 40
1.5
  1
 
  7
WSCAD_ALLGTEXT
100
AcDbText
  0
POLYLINE
  5
16D
330
1F
100
AcDbEntity
  8
0
  6
Continuous
 62
   152
100
AcDb2dPolyline
 66
     1
 10
0.0
 20
0.0
 30
0.0
  0
VERTEX
  5
16E
330
16D
100
AcDbEntity
  8
0
  6
Continuous
 62
   152
100
AcDbVertex
100
AcDb2dVertex
 10
122.5
 20
192.5
 30
0.0
  0
VERTEX
  5
16F
330
16D
100
AcDbEntity
  8
0
  6
Continuous
 62
   152
100
AcDbVertex
100
AcDb2dVertex
 10
122.5
 20
185.0
 30
0.0
  0
SEQEND
  5
170
330
16D
100
AcDbEntity
  8
0
  6
Continuous
 62
   152
  0
POLYLINE
  5
171
330
1F
100
AcDbEntity
  8
0
  6
Continuous
 62
   152
100
AcDb2dPolyline
 66
     1
 10
0.0
 20
0.0
 30
0.0
  0
VERTEX
  5
172
330
171
100
AcDbEntity
  8
0
  6
Continuous
 62
   152
100
AcDbVertex
100
AcDb2dVertex
 10
112.5
 20
192.5
 30
0.0
  0
VERTEX
  5
173
330
171
100
AcDbEntity
  8
0
  6
Continuous
 62
   152
100
AcDbVertex
100
AcDb2dVertex
 10
112.5
 20
185.0
 30
0.0
  0
SEQEND
  5
174
330
171
100
AcDbEntity
  8
0
  6
Continuous
 62
   152
  0
POLYLINE
  5
176
102
{ACAD_REACTORS
330
175
102
}
330
1F
100
AcDbEntity
  8
0
  6
Continuous
 62
    62
100
AcDb2dPolyline
 66
     1
 10
0.0
 20
0.0
 30
0.0
  0
VERTEX
  5
177
330
176
100
AcDbEntity
  8
0
  6
Continuous
 62
    62
100
AcDbVertex
100
AcDb2dVertex
 10
112.5
 20
192.5
 30
0.0
  0
VERTEX
  5
178
330
176
100
AcDbEntity
  8
0
  6
Continuous
 62
    62
100
AcDbVertex
100
AcDb2dVertex
 10
112.5
 20
195.0
 30
0.0
  0
VERTEX
  5
179
330
176
100
AcDbEntity
  8
0
  6
Continuous
 62
    62
100
AcDbVertex
100
AcDb2dVertex
 10
111.5
 20
197.75
 30
0.0
  0
SEQEND
  5
17A
330
176
100
AcDbEntity
  8
0
  6
Continuous
 62
    62
  0
POLYLINE
  5
17B
102
{ACAD_REACTORS
330
175
102
}
330
1F
100
AcDbEntity
  8
0
  6
Continuous
 62
    62
100
AcDb2dPolyline
 66
     1
 10
0.0
 20
0.0
 30
0.0
  0
VERTEX
  5
17C
330
17B
100
AcDbEntity
  8
0
  6
Continuous
 62
    62
100
AcDbVertex
100
AcDb2dVertex
 10
112.5
 20
197.5
 30
0.0
  0
VERTEX
  5
17D
330
17B
100
AcDbEntity
  8
0
  6
Continuous
 62
    62
100
AcDbVertex
100
AcDb2dVertex
 10
112.5
 20
200.0
 30
0.0
  0
SEQEND
  5
17E
330
17B
100
AcDbEntity
  8
0
  6
Continuous
 62
    62
  0
TEXT
  5
17F
102
{ACAD_REACTORS
330
175
102
}
330
1F
100
AcDbEntity
  8
0
 62
     1
100
AcDbText
 10
113.75
 20
200.5
 30
0.0
 40
1.5
  1
 
  7
WSCAD_ALLGTEXT
100
AcDbText
  0
TEXT
  5
180
102
{ACAD_REACTORS
330
175
102
}
330
1F
100
AcDbEntity
  8
0
 62
     1
100
AcDbText
 10
113.75
 20
193.0
 30
0.0
 40
1.5
  1
 
  7
WSCAD_ALLGTEXT
100
AcDbText
  0
POLYLINE
  5
182
102
{ACAD_REACTORS
330
181
102
}
330
1F
100
AcDbEntity
  8
0
  6
Continuous
 62
    62
100
AcDb2dPolyline
 66
     1
 10
0.0
 20
0.0
 30
0.0
  0
VERTEX
  5
183
330
182
100
AcDbEntity
  8
0
  6
Continuous
 62
    62
100
AcDbVertex
100
AcDb2dVertex
 10
122.5
 20
192.5
 30
0.0
  0
VERTEX
  5
184
330
182
100
AcDbEntity
  8
0
  6
Continuous
 62
    62
100
AcDbVertex
100
AcDb2dVertex
 10
122.5
 20
195.0
 30
0.0
  0
VERTEX
  5
185
330
182
100
AcDbEntity
  8
0
  6
Continuous
 62
    62
100
AcDbVertex
100
AcDb2dVertex
 10
121.5
 20
197.75
 30
0.0
  0
SEQEND
  5
186
330
182
100
AcDbEntity
  8
0
  6
Continuous
 62
    62
  0
POLYLINE
  5
187
102
{ACAD_REACTORS
330
181
102
}
330
1F
100
AcDbEntity
  8
0
  6
Continuous
 62
    62
100
AcDb2dPolyline
 66
     1
 10
0.0
 20
0.0
 30
0.0
  0
VERTEX
  5
188
330
187
100
AcDbEntity
  8
0
  6
Continuous
 62
    62
100
AcDbVertex
100
AcDb2dVertex
 10
122.5
 20
197.5
 30
0.0
  0
VERTEX
  5
189
330
187
100
AcDbEntity
  8
0
  6
Continuous
 62
    62
100
AcDbVertex
100
AcDb2dVertex
 10
122.5
 20
200.0
 30
0.0
  0
SEQEND
  5
18A
330
187
100
AcDbEntity
  8
0
  6
Continuous
 62
    62
  0
TEXT
  5
18B
102
{ACAD_REACTORS
330
181
102
}
330
1F
100
AcDbEntity
  8
0
 62
     1
100
AcDbText
 10
123.75
 20
200.5
 30
0.0
 40
1.5
  1
 
  7
WSCAD_ALLGTEXT
100
AcDbText
  0
TEXT
  5
18C
102
{ACAD_REACTORS
330
181
102
}
330
1F
100
AcDbEntity
  8
0
 62
     1
100
AcDbText
 10
123.75
 20
193.0
 30
0.0
 40
1.5
  1
 
  7
WSCAD_ALLGTEXT
100
AcDbText
  0
POLYLINE
  5
18E
102
{ACAD_REACTORS
330
18D
102
}
330
1F
100
AcDbEntity
  8
0
  6
Continuous
 62
    62
100
AcDb2dPolyline
 66
     1
 10
0.0
 20
0.0
 30
0.0
  0
VERTEX
  5
18F
330
18E
100
AcDbEntity
  8
0
  6
Continuous
 62
    62
100
AcDbVertex
100
AcDb2dVertex
 10
102.5
 20
192.5
 30
0.0
  0
VERTEX
  5
190
330
18E
100
AcDbEntity
  8
0
  6
Continuous
 62
    62
100
AcDbVertex
100
AcDb2dVertex
 10
102.5
 20
195.0
 30
0.0
  0
VERTEX
  5
191
330
18E
100
AcDbEntity
  8
0
  6
Continuous
 62
    62
100
AcDbVertex
100
AcDb2dVertex
 10
101.5
 20
197.75
 30
0.0
  0
SEQEND
  5
192
330
18E
100
AcDbEntity
  8
0
  6
Continuous
 62
    62
  0
POLYLINE
  5
193
102
{ACAD_REACTORS
330
18D
102
}
330
1F
100
AcDbEntity
  8
0
  6
Continuous
 62
    62
100
AcDb2dPolyline
 66
     1
 10
0.0
 20
0.0
 30
0.0
  0
VERTEX
  5
194
330
193
100
AcDbEntity
  8
0
  6
Continuous
 62
    62
100
AcDbVertex
100
AcDb2dVertex
 10
102.5
 20
197.5
 30
0.0
  0
VERTEX
  5
195
330
193
100
AcDbEntity
  8
0
  6
Continuous
 62
    62
100
AcDbVertex
100
AcDb2dVertex
 10
102.5
 20
200.0
 30
0.0
  0
SEQEND
  5
196
330
193
100
AcDbEntity
  8
0
  6
Continuous
 62
    62
  0
TEXT
  5
197
102
{ACAD_REACTORS
330
18D
102
}
330
1F
100
AcDbEntity
  8
0
 62
     1
100
AcDbText
 10
103.75
 20
200.5
 30
0.0
 40
1.5
  1
 
  7
WSCAD_ALLGTEXT
100
AcDbText
  0
TEXT
  5
198
102
{ACAD_REACTORS
330
18D
102
}
330
1F
100
AcDbEntity
  8
0
 62
     1
100
AcDbText
 10
103.75
 20
193.0
 30
0.0
 40
1.5
  1
 
  7
WSCAD_ALLGTEXT
100
AcDbText
  0
CIRCLE
  5
199
330
1F
100
AcDbEntity
  8
0
 62
     3
100
AcDbCircle
 10
32.5
 20
220.0
 30
0.0
 40
0.25
  0
CIRCLE
  5
19A
330
1F
100
AcDbEntity
  8
0
 62
     3
100
AcDbCircle
 10
32.5
 20
220.0
 30
0.0
 40
0.5
  0
POLYLINE
  5
19B
330
1F
100
AcDbEntity
  8
0
  6
Continuous
 62
   152
100
AcDb2dPolyline
 66
     1
 10
0.0
 20
0.0
 30
0.0
  0
VERTEX
  5
19C
330
19B
100
AcDbEntity
  8
0
  6
Continuous
 62
   152
100
AcDbVertex
100
AcDb2dVertex
 10
32.5
 20
220.0
 30
0.0
  0
VERTEX
  5
19D
330
19B
100
AcDbEntity
  8
0
  6
Continuous
 62
   152
100
AcDbVertex
100
AcDb2dVertex
 10
32.5
 20
185.0
 30
0.0
  0
SEQEND
  5
19E
330
19B
100
AcDbEntity
  8
0
  6
Continuous
 62
   152
  0
CIRCLE
  5
19F
330
1F
100
AcDbEntity
  8
0
 62
     3
100
AcDbCircle
 10
42.5
 20
222.5
 30
0.0
 40
0.25
  0
CIRCLE
  5
1A0
330
1F
100
AcDbEntity
  8
0
 62
     3
100
AcDbCircle
 10
42.5
 20
222.5
 30
0.0
 40
0.5
  0
POLYLINE
  5
1A1
330
1F
100
AcDbEntity
  8
0
  6
Continuous
 62
   152
100
AcDb2dPolyline
 66
     1
 10
0.0
 20
0.0
 30
0.0
  0
VERTEX
  5
1A2
330
1A1
100
AcDbEntity
  8
0
  6
Continuous
 62
   152
100
AcDbVertex
100
AcDb2dVertex
 10
42.5
 20
222.5
 30
0.0
  0
VERTEX
  5
1A3
330
1A1
100
AcDbEntity
  8
0
  6
Continuous
 62
   152
100
AcDbVertex
100
AcDb2dVertex
 10
42.5
 20
212.5
 30
0.0
  0
SEQEND
  5
1A4
330
1A1
100
AcDbEntity
  8
0
  6
Continuous
 62
   152
  0
CIRCLE
  5
1A5
330
1F
100
AcDbEntity
  8
0
 62
     3
100
AcDbCircle
 10
52.5
 20
222.5
 30
0.0
 40
0.25
  0
CIRCLE
  5
1A6
330
1F
100
AcDbEntity
  8
0
 62
     3
100
AcDbCircle
 10
52.5
 20
222.5
 30
0.0
 40
0.5
  0
POLYLINE
  5
1A7
330
1F
100
AcDbEntity
  8
0
  6
Continuous
 62
   152
100
AcDb2dPolyline
 66
     1
 10
0.0
 20
0.0
 30
0.0
  0
VERTEX
  5
1A8
330
1A7
100
AcDbEntity
  8
0
  6
Continuous
 62
   152
100
AcDbVertex
100
AcDb2dVertex
 10
52.5
 20
222.5
 30
0.0
  0
VERTEX
  5
1A9
330
1A7
100
AcDbEntity
  8
0
  6
Continuous
 62
   152
100
AcDbVertex
100
AcDb2dVertex
 10
52.5
 20
212.5
 30
0.0
  0
SEQEND
  5
1AA
330
1A7
100
AcDbEntity
  8
0
  6
Continuous
 62
   152
  0
CIRCLE
  5
1AB
330
1F
100
AcDbEntity
  8
0
 62
     3
100
AcDbCircle
 10
62.5
 20
222.5
 30
0.0
 40
0.25
  0
CIRCLE
  5
1AC
330
1F
100
AcDbEntity
  8
0
 62
     3
100
AcDbCircle
 10
62.5
 20
222.5
 30
0.0
 40
0.5
  0
POLYLINE
  5
1AD
330
1F
100
AcDbEntity
  8
0
  6
Continuous
 62
   152
100
AcDb2dPolyline
 66
     1
 10
0.0
 20
0.0
 30
0.0
  0
VERTEX
  5
1AE
330
1AD
100
AcDbEntity
  8
0
  6
Continuous
 62
   152
100
AcDbVertex
100
AcDb2dVertex
 10
62.5
 20
222.5
 30
0.0
  0
VERTEX
  5
1AF
330
1AD
100
AcDbEntity
  8
0
  6
Continuous
 62
   152
100
AcDbVertex
100
AcDb2dVertex
 10
62.5
 20
212.5
 30
0.0
  0
SEQEND
  5
1B0
330
1AD
100
AcDbEntity
  8
0
  6
Continuous
 62
   152
  0
CIRCLE
  5
1B1
330
1F
100
AcDbEntity
  8
0
 62
     3
100
AcDbCircle
 10
72.5
 20
222.5
 30
0.0
 40
0.25
  0
CIRCLE
  5
1B2
330
1F
100
AcDbEntity
  8
0
 62
     3
100
AcDbCircle
 10
72.5
 20
222.5
 30
0.0
 40
0.5
  0
POLYLINE
  5
1B3
330
1F
100
AcDbEntity
  8
0
  6
Continuous
 62
   152
100
AcDb2dPolyline
 66
     1
 10
0.0
 20
0.0
 30
0.0
  0
VERTEX
  5
1B4
330
1B3
100
AcDbEntity
  8
0
  6
Continuous
 62
   152
100
AcDbVertex
100
AcDb2dVertex
 10
72.5
 20
222.5
 30
0.0
  0
VERTEX
  5
1B5
330
1B3
100
AcDbEntity
  8
0
  6
Continuous
 62
   152
100
AcDbVertex
100
AcDb2dVertex
 10
72.5
 20
212.5
 30
0.0
  0
SEQEND
  5
1B6
330
1B3
100
AcDbEntity
  8
0
  6
Continuous
 62
   152
  0
CIRCLE
  5
1B7
330
1F
100
AcDbEntity
  8
0
 62
     3
100
AcDbCircle
 10
92.5
 20
222.5
 30
0.0
 40
0.25
  0
CIRCLE
  5
1B8
330
1F
100
AcDbEntity
  8
0
 62
     3
100
AcDbCircle
 10
92.5
 20
222.5
 30
0.0
 40
0.5
  0
POLYLINE
  5
1B9
330
1F
100
AcDbEntity
  8
0
  6
Continuous
 62
   152
100
AcDb2dPolyline
 66
     1
 10
0.0
 20
0.0
 30
0.0
  0
VERTEX
  5
1BA
330
1B9
100
AcDbEntity
  8
0
  6
Continuous
 62
   152
100
AcDbVertex
100
AcDb2dVertex
 10
92.5
 20
222.5
 30
0.0
  0
VERTEX
  5
1BB
330
1B9
100
AcDbEntity
  8
0
  6
Continuous
 62
   152
100
AcDbVertex
100
AcDb2dVertex
 10
92.5
 20
200.0
 30
0.0
  0
SEQEND
  5
1BC
330
1B9
100
AcDbEntity
  8
0
  6
Continuous
 62
   152
  0
CIRCLE
  5
1BD
330
1F
100
AcDbEntity
  8
0
 62
     3
100
AcDbCircle
 10
102.5
 20
222.5
 30
0.0
 40
0.25
  0
CIRCLE
  5
1BE
330
1F
100
AcDbEntity
  8
0
 62
     3
100
AcDbCircle
 10
102.5
 20
222.5
 30
0.0
 40
0.5
  0
POLYLINE
  5
1BF
330
1F
100
AcDbEntity
  8
0
  6
Continuous
 62
   152
100
AcDb2dPolyline
 66
     1
 10
0.0
 20
0.0
 30
0.0
  0
VERTEX
  5
1C0
330
1BF
100
AcDbEntity
  8
0
  6
Continuous
 62
   152
100
AcDbVertex
100
AcDb2dVertex
 10
102.5
 20
222.5
 30
0.0
  0
VERTEX
  5
1C1
330
1BF
100
AcDbEntity
  8
0
  6
Continuous
 62
   152
100
AcDbVertex
100
AcDb2dVertex
 10
102.5
 20
200.0
 30
0.0
  0
SEQEND
  5
1C2
330
1BF
100
AcDbEntity
  8
0
  6
Continuous
 62
   152
  0
CIRCLE
  5
1C3
330
1F
100
AcDbEntity
  8
0
 62
     3
100
AcDbCircle
 10
112.5
 20
222.5
 30
0.0
 40
0.25
  0
CIRCLE
  5
1C4
330
1F
100
AcDbEntity
  8
0
 62
     3
100
AcDbCircle
 10
112.5
 20
222.5
 30
0.0
 40
0.5
  0
POLYLINE
  5
1C5
330
1F
100
AcDbEntity
  8
0
  6
Continuous
 62
   152
100
AcDb2dPolyline
 66
     1
 10
0.0
 20
0.0
 30
0.0
  0
VERTEX
  5
1C6
330
1C5
100
AcDbEntity
  8
0
  6
Continuous
 62
   152
100
AcDbVertex
100
AcDb2dVertex
 10
112.5
 20
222.5
 30
0.0
  0
VERTEX
  5
1C7
330
1C5
100
AcDbEntity
  8
0
  6
Continuous
 62
   152
100
AcDbVertex
100
AcDb2dVertex
 10
112.5
 20
200.0
 30
0.0
  0
SEQEND
  5
1C8
330
1C5
100
AcDbEntity
  8
0
  6
Continuous
 62
   152
  0
CIRCLE
  5
1C9
330
1F
100
AcDbEntity
  8
0
 62
     3
100
AcDbCircle
 10
122.5
 20
222.5
 30
0.0
 40
0.25
  0
CIRCLE
  5
1CA
330
1F
100
AcDbEntity
  8
0
 62
     3
100
AcDbCircle
 10
122.5
 20
222.5
 30
0.0
 40
0.5
  0
POLYLINE
  5
1CB
330
1F
100
AcDbEntity
  8
0
  6
Continuous
 62
   152
100
AcDb2dPolyline
 66
     1
 10
0.0
 20
0.0
 30
0.0
  0
VERTEX
  5
1CC
330
1CB
100
AcDbEntity
  8
0
  6
Continuous
 62
   152
100
AcDbVertex
100
AcDb2dVertex
 10
122.5
 20
222.5
 30
0.0
  0
VERTEX
  5
1CD
330
1CB
100
AcDbEntity
  8
0
  6
Continuous
 62
   152
100
AcDbVertex
100
AcDb2dVertex
 10
122.5
 20
200.0
 30
0.0
  0
SEQEND
  5
1CE
330
1CB
100
AcDbEntity
  8
0
  6
Continuous
 62
   152
  0
POLYLINE
  5
1D0
102
{ACAD_REACTORS
330
1CF
102
}
330
1F
100
AcDbEntity
  8
0
  6
Continuous
 62
    62
100
AcDb2dPolyline
 66
     1
 10
0.0
 20
0.0
 30
0.0
  0
VERTEX
  5
1D1
330
1D0
100
AcDbEntity
  8
0
  6
Continuous
 62
    62
100
AcDbVertex
100
AcDb2dVertex
 10
12.5
 20
155.0
 30
0.0
  0
VERTEX
  5
1D2
330
1D0
100
AcDbEntity
  8
0
  6
Continuous
 62
    62
100
AcDbVertex
100
AcDb2dVertex
 10
12.5
 20
152.5
 30
0.0
  0
SEQEND
  5
1D3
330
1D0
100
AcDbEntity
  8
0
  6
Continuous
 62
    62
  0
POLYLINE
  5
1D4
102
{ACAD_REACTORS
330
1CF
102
}
330
1F
100
AcDbEntity
  8
0
  6
Continuous
 62
    62
100
AcDb2dPolyline
 66
     1
 10
0.0
 20
0.0
 30
0.0
  0
VERTEX
  5
1D5
330
1D4
100
AcDbEntity
  8
0
  6
Continuous
 62
    62
100
AcDbVertex
100
AcDb2dVertex
 10
12.5
 20
147.5
 30
0.0
  0
VERTEX
  5
1D6
330
1D4
100
AcDbEntity
  8
0
  6
Continuous
 62
    62
100
AcDbVertex
100
AcDb2dVertex
 10
12.5
 20
150.0
 30
0.0
  0
VERTEX
  5
1D7
330
1D4
100
AcDbEntity
  8
0
  6
Continuous
 62
    62
100
AcDbVertex
100
AcDb2dVertex
 10
11.25
 20
152.5
 30
0.0
  0
SEQEND
  5
1D8
330
1D4
100
AcDbEntity
  8
0
  6
Continuous
 62
    62
  0
POLYLINE
  5
1D9
102
{ACAD_REACTORS
330
1CF
102
}
330
1F
100
AcDbEntity
  8
0
  6
Continuous
 62
    62
100
AcDb2dPolyline
 66
     1
 10
0.0
 20
0.0
 30
0.0
  0
VERTEX
  5
1DA
330
1D9
100
AcDbEntity
  8
0
  6
Continuous
 62
    62
100
AcDbVertex
100
AcDb2dVertex
 10
40.75
 20
184.25
 30
0.0
  0
VERTEX
  5
1DB
330
1D9
100
AcDbEntity
  8
0
  6
Continuous
 62
    62
100
AcDbVertex
100
AcDb2dVertex
 10
44.25
 20
184.25
 30
0.0
  0
VERTEX
  5
1DC
330
1D9
100
AcDbEntity
  8
0
  6
Continuous
 62
    62
100
AcDbVertex
100
AcDb2dVertex
 10
44.25
 20
180.5
 30
0.0
  0
VERTEX
  5
1DD
330
1D9
100
AcDbEntity
  8
0
  6
Continuous
 62
    62
100
AcDbVertex
100
AcDb2dVertex
 10
40.75
 20
180.5
 30
0.0
  0
VERTEX
  5
1DE
330
1D9
100
AcDbEntity
  8
0
  6
Continuous
 62
    62
100
AcDbVertex
100
AcDb2dVertex
 10
40.75
 20
184.25
 30
0.0
  0
SEQEND
  5
1DF
330
1D9
100
AcDbEntity
  8
0
  6
Continuous
 62
    62
  0
POLYLINE
  5
1E0
102
{ACAD_REACTORS
330
1CF
102
}
330
1F
100
AcDbEntity
  8
0
  6
Continuous
 62
    62
100
AcDb2dPolyline
 66
     1
 10
0.0
 20
0.0
 30
0.0
  0
VERTEX
  5
1E1
330
1E0
100
AcDbEntity
  8
0
  6
Continuous
 62
    62
100
AcDbVertex
100
AcDb2dVertex
 10
42.5
 20
180.5
 30
0.0
  0
VERTEX
  5
1E2
330
1E0
100
AcDbEntity
  8
0
  6
Continuous
 62
    62
100
AcDbVertex
100
AcDb2dVertex
 10
42.5
 20
178.75
 30
0.0
  0
SEQEND
  5
1E3
330
1E0
100
AcDbEntity
  8
0
  6
Continuous
 62
    62
  0
POLYLINE
  5
1E4
102
{ACAD_REACTORS
330
1CF
102
}
330
1F
100
AcDbEntity
  8
0
  6
Continuous
 62
    62
100
AcDb2dPolyline
 66
     1
 10
0.0
 20
0.0
 30
0.0
  0
VERTEX
  5
1E5
330
1E4
100
AcDbEntity
  8
0
  6
Continuous
 62
    62
100
AcDbVertex
100
AcDb2dVertex
 10
50.75
 20
184.25
 30
0.0
  0
VERTEX
  5
1E6
330
1E4
100
AcDbEntity
  8
0
  6
Continuous
 62
    62
100
AcDbVertex
100
AcDb2dVertex
 10
54.25
 20
184.25
 30
0.0
  0
VERTEX
  5
1E7
330
1E4
100
AcDbEntity
  8
0
  6
Continuous
 62
    62
100
AcDbVertex
100
AcDb2dVertex
 10
54.25
 20
180.5
 30
0.0
  0
VERTEX
  5
1E8
330
1E4
100
AcDbEntity
  8
0
  6
Continuous
 62
    62
100
AcDbVertex
100
AcDb2dVertex
 10
50.75
 20
180.5
 30
0.0
  0
VERTEX
  5
1E9
330
1E4
100
AcDbEntity
  8
0
  6
Continuous
 62
    62
100
AcDbVertex
100
AcDb2dVertex
 10
50.75
 20
184.25
 30
0.0
  0
SEQEND
  5
1EA
330
1E4
100
AcDbEntity
  8
0
  6
Continuous
 62
    62
  0
POLYLINE
  5
1EB
102
{ACAD_REACTORS
330
1CF
102
}
330
1F
100
AcDbEntity
  8
0
  6
Continuous
 62
    62
100
AcDb2dPolyline
 66
     1
 10
0.0
 20
0.0
 30
0.0
  0
VERTEX
  5
1EC
330
1EB
100
AcDbEntity
  8
0
  6
Continuous
 62
    62
100
AcDbVertex
100
AcDb2dVertex
 10
52.5
 20
180.5
 30
0.0
  0
VERTEX
  5
1ED
330
1EB
100
AcDbEntity
  8
0
  6
Continuous
 62
    62
100
AcDbVertex
100
AcDb2dVertex
 10
52.5
 20
178.75
 30
0.0
  0
SEQEND
  5
1EE
330
1EB
100
AcDbEntity
  8
0
  6
Continuous
 62
    62
  0
POLYLINE
  5
1EF
102
{ACAD_REACTORS
330
1CF
102
}
330
1F
100
AcDbEntity
  8
0
  6
Continuous
 62
    62
100
AcDb2dPolyline
 66
     1
 10
0.0
 20
0.0
 30
0.0
  0
VERTEX
  5
1F0
330
1EF
100
AcDbEntity
  8
0
  6
Continuous
 62
    62
100
AcDbVertex
100
AcDb2dVertex
 10
60.75
 20
184.25
 30
0.0
  0
VERTEX
  5
1F1
330
1EF
100
AcDbEntity
  8
0
  6
Continuous
 62
    62
100
AcDbVertex
100
AcDb2dVertex
 10
64.25
 20
184.25
 30
0.0
  0
VERTEX
  5
1F2
330
1EF
100
AcDbEntity
  8
0
  6
Continuous
 62
    62
100
AcDbVertex
100
AcDb2dVertex
 10
64.25
 20
180.5
 30
0.0
  0
VERTEX
  5
1F3
330
1EF
100
AcDbEntity
  8
0
  6
Continuous
 62
    62
100
AcDbVertex
100
AcDb2dVertex
 10
60.75
 20
180.5
 30
0.0
  0
VERTEX
  5
1F4
330
1EF
100
AcDbEntity
  8
0
  6
Continuous
 62
    62
100
AcDbVertex
100
AcDb2dVertex
 10
60.75
 20
184.25
 30
0.0
  0
SEQEND
  5
1F5
330
1EF
100
AcDbEntity
  8
0
  6
Continuous
 62
    62
  0
POLYLINE
  5
1F6
102
{ACAD_REACTORS
330
1CF
102
}
330
1F
100
AcDbEntity
  8
0
  6
Continuous
 62
    62
100
AcDb2dPolyline
 66
     1
 10
0.0
 20
0.0
 30
0.0
  0
VERTEX
  5
1F7
330
1F6
100
AcDbEntity
  8
0
  6
Continuous
 62
    62
100
AcDbVertex
100
AcDb2dVertex
 10
62.5
 20
180.5
 30
0.0
  0
VERTEX
  5
1F8
330
1F6
100
AcDbEntity
  8
0
  6
Continuous
 62
    62
100
AcDbVertex
100
AcDb2dVertex
 10
62.5
 20
178.75
 30
0.0
  0
SEQEND
  5
1F9
330
1F6
100
AcDbEntity
  8
0
  6
Continuous
 62
    62
  0
POLYLINE
  5
1FA
102
{ACAD_REACTORS
330
1CF
102
}
330
1F
100
AcDbEntity
  8
0
  6
Continuous
 62
    62
100
AcDb2dPolyline
 66
     1
 10
0.0
 20
0.0
 30
0.0
  0
VERTEX
  5
1FB
330
1FA
100
AcDbEntity
  8
0
  6
Continuous
 62
    62
100
AcDbVertex
100
AcDb2dVertex
 10
70.75
 20
184.25
 30
0.0
  0
VERTEX
  5
1FC
330
1FA
100
AcDbEntity
  8
0
  6
Continuous
 62
    62
100
AcDbVertex
100
AcDb2dVertex
 10
74.25
 20
184.25
 30
0.0
  0
VERTEX
  5
1FD
330
1FA
100
AcDbEntity
  8
0
  6
Continuous
 62
    62
100
AcDbVertex
100
AcDb2dVertex
 10
74.25
 20
180.5
 30
0.0
  0
VERTEX
  5
1FE
330
1FA
100
AcDbEntity
  8
0
  6
Continuous
 62
    62
100
AcDbVertex
100
AcDb2dVertex
 10
70.75
 20
180.5
 30
0.0
  0
VERTEX
  5
1FF
330
1FA
100
AcDbEntity
  8
0
  6
Continuous
 62
    62
100
AcDbVertex
100
AcDb2dVertex
 10
70.75
 20
184.25
 30
0.0
  0
SEQEND
  5
200
330
1FA
100
AcDbEntity
  8
0
  6
Continuous
 62
    62
  0
POLYLINE
  5
201
102
{ACAD_REACTORS
330
1CF
102
}
330
1F
100
AcDbEntity
  8
0
  6
Continuous
 62
    62
100
AcDb2dPolyline
 66
     1
 10
0.0
 20
0.0
 30
0.0
  0
VERTEX
  5
202
330
201
100
AcDbEntity
  8
0
  6
Continuous
 62
    62
100
AcDbVertex
100
AcDb2dVertex
 10
72.5
 20
180.5
 30
0.0
  0
VERTEX
  5
203
330
201
100
AcDbEntity
  8
0
  6
Continuous
 62
    62
100
AcDbVertex
100
AcDb2dVertex
 10
72.5
 20
178.75
 30
0.0
  0
SEQEND
  5
204
330
201
100
AcDbEntity
  8
0
  6
Continuous
 62
    62
  0
POLYLINE
  5
205
102
{ACAD_REACTORS
330
1CF
102
}
330
1F
100
AcDbEntity
  8
0
  6
Continuous
 62
    62
100
AcDb2dPolyline
 66
     1
 10
0.0
 20
0.0
 30
0.0
  0
VERTEX
  5
206
330
205
100
AcDbEntity
  8
0
  6
Continuous
 62
    62
100
AcDbVertex
100
AcDb2dVertex
 10
90.75
 20
184.25
 30
0.0
  0
VERTEX
  5
207
330
205
100
AcDbEntity
  8
0
  6
Continuous
 62
    62
100
AcDbVertex
100
AcDb2dVertex
 10
94.25
 20
184.25
 30
0.0
  0
VERTEX
  5
208
330
205
100
AcDbEntity
  8
0
  6
Continuous
 62
    62
100
AcDbVertex
100
AcDb2dVertex
 10
94.25
 20
180.5
 30
0.0
  0
VERTEX
  5
209
330
205
100
AcDbEntity
  8
0
  6
Continuous
 62
    62
100
AcDbVertex
100
AcDb2dVertex
 10
90.75
 20
180.5
 30
0.0
  0
VERTEX
  5
20A
330
205
100
AcDbEntity
  8
0
  6
Continuous
 62
    62
100
AcDbVertex
100
AcDb2dVertex
 10
90.75
 20
184.25
 30
0.0
  0
SEQEND
  5
20B
330
205
100
AcDbEntity
  8
0
  6
Continuous
 62
    62
  0
POLYLINE
  5
20C
102
{ACAD_REACTORS
330
1CF
102
}
330
1F
100
AcDbEntity
  8
0
  6
Continuous
 62
    62
100
AcDb2dPolyline
 66
     1
 10
0.0
 20
0.0
 30
0.0
  0
VERTEX
  5
20D
330
20C
100
AcDbEntity
  8
0
  6
Continuous
 62
    62
100
AcDbVertex
100
AcDb2dVertex
 10
92.5
 20
180.5
 30
0.0
  0
VERTEX
  5
20E
330
20C
100
AcDbEntity
  8
0
  6
Continuous
 62
    62
100
AcDbVertex
100
AcDb2dVertex
 10
92.5
 20
178.75
 30
0.0
  0
SEQEND
  5
20F
330
20C
100
AcDbEntity
  8
0
  6
Continuous
 62
    62
  0
POLYLINE
  5
210
102
{ACAD_REACTORS
330
1CF
102
}
330
1F
100
AcDbEntity
  8
0
  6
Continuous
 62
    62
100
AcDb2dPolyline
 66
     1
 10
0.0
 20
0.0
 30
0.0
  0
VERTEX
  5
211
330
210
100
AcDbEntity
  8
0
  6
Continuous
 62
    62
100
AcDbVertex
100
AcDb2dVertex
 10
100.75
 20
184.25
 30
0.0
  0
VERTEX
  5
212
330
210
100
AcDbEntity
  8
0
  6
Continuous
 62
    62
100
AcDbVertex
100
AcDb2dVertex
 10
104.25
 20
184.25
 30
0.0
  0
VERTEX
  5
213
330
210
100
AcDbEntity
  8
0
  6
Continuous
 62
    62
100
AcDbVertex
100
AcDb2dVertex
 10
104.25
 20
180.5
 30
0.0
  0
VERTEX
  5
214
330
210
100
AcDbEntity
  8
0
  6
Continuous
 62
    62
100
AcDbVertex
100
AcDb2dVertex
 10
100.75
 20
180.5
 30
0.0
  0
VERTEX
  5
215
330
210
100
AcDbEntity
  8
0
  6
Continuous
 62
    62
100
AcDbVertex
100
AcDb2dVertex
 10
100.75
 20
184.25
 30
0.0
  0
SEQEND
  5
216
330
210
100
AcDbEntity
  8
0
  6
Continuous
 62
    62
  0
POLYLINE
  5
217
102
{ACAD_REACTORS
330
1CF
102
}
330
1F
100
AcDbEntity
  8
0
  6
Continuous
 62
    62
100
AcDb2dPolyline
 66
     1
 10
0.0
 20
0.0
 30
0.0
  0
VERTEX
  5
218
330
217
100
AcDbEntity
  8
0
  6
Continuous
 62
    62
100
AcDbVertex
100
AcDb2dVertex
 10
102.5
 20
180.5
 30
0.0
  0
VERTEX
  5
219
330
217
100
AcDbEntity
  8
0
  6
Continuous
 62
    62
100
AcDbVertex
100
AcDb2dVertex
 10
102.5
 20
178.75
 30
0.0
  0
SEQEND
  5
21A
330
217
100
AcDbEntity
  8
0
  6
Continuous
 62
    62
  0
POLYLINE
  5
21B
102
{ACAD_REACTORS
330
1CF
102
}
330
1F
100
AcDbEntity
  8
0
  6
Continuous
 62
    62
100
AcDb2dPolyline
 66
     1
 10
0.0
 20
0.0
 30
0.0
  0
VERTEX
  5
21C
330
21B
100
AcDbEntity
  8
0
  6
Continuous
 62
    62
100
AcDbVertex
100
AcDb2dVertex
 10
110.75
 20
184.25
 30
0.0
  0
VERTEX
  5
21D
330
21B
100
AcDbEntity
  8
0
  6
Continuous
 62
    62
100
AcDbVertex
100
AcDb2dVertex
 10
114.25
 20
184.25
 30
0.0
  0
VERTEX
  5
21E
330
21B
100
AcDbEntity
  8
0
  6
Continuous
 62
    62
100
AcDbVertex
100
AcDb2dVertex
 10
114.25
 20
180.5
 30
0.0
  0
VERTEX
  5
21F
330
21B
100
AcDbEntity
  8
0
  6
Continuous
 62
    62
100
AcDbVertex
100
AcDb2dVertex
 10
110.75
 20
180.5
 30
0.0
  0
VERTEX
  5
220
330
21B
100
AcDbEntity
  8
0
  6
Continuous
 62
    62
100
AcDbVertex
100
AcDb2dVertex
 10
110.75
 20
184.25
 30
0.0
  0
SEQEND
  5
221
330
21B
100
AcDbEntity
  8
0
  6
Continuous
 62
    62
  0
POLYLINE
  5
222
102
{ACAD_REACTORS
330
1CF
102
}
330
1F
100
AcDbEntity
  8
0
  6
Continuous
 62
    62
100
AcDb2dPolyline
 66
     1
 10
0.0
 20
0.0
 30
0.0
  0
VERTEX
  5
223
330
222
100
AcDbEntity
  8
0
  6
Continuous
 62
    62
100
AcDbVertex
100
AcDb2dVertex
 10
112.5
 20
180.5
 30
0.0
  0
VERTEX
  5
224
330
222
100
AcDbEntity
  8
0
  6
Continuous
 62
    62
100
AcDbVertex
100
AcDb2dVertex
 10
112.5
 20
178.75
 30
0.0
  0
SEQEND
  5
225
330
222
100
AcDbEntity
  8
0
  6
Continuous
 62
    62
  0
POLYLINE
  5
226
102
{ACAD_REACTORS
330
1CF
102
}
330
1F
100
AcDbEntity
  8
0
  6
Continuous
 62
    62
100
AcDb2dPolyline
 66
     1
 10
0.0
 20
0.0
 30
0.0
  0
VERTEX
  5
227
330
226
100
AcDbEntity
  8
0
  6
Continuous
 62
    62
100
AcDbVertex
100
AcDb2dVertex
 10
120.75
 20
184.25
 30
0.0
  0
VERTEX
  5
228
330
226
100
AcDbEntity
  8
0
  6
Continuous
 62
    62
100
AcDbVertex
100
AcDb2dVertex
 10
124.25
 20
184.25
 30
0.0
  0
VERTEX
  5
229
330
226
100
AcDbEntity
  8
0
  6
Continuous
 62
    62
100
AcDbVertex
100
AcDb2dVertex
 10
124.25
 20
180.5
 30
0.0
  0
VERTEX
  5
22A
330
226
100
AcDbEntity
  8
0
  6
Continuous
 62
    62
100
AcDbVertex
100
AcDb2dVertex
 10
120.75
 20
180.5
 30
0.0
  0
VERTEX
  5
22B
330
226
100
AcDbEntity
  8
0
  6
Continuous
 62
    62
100
AcDbVertex
100
AcDb2dVertex
 10
120.75
 20
184.25
 30
0.0
  0
SEQEND
  5
22C
330
226
100
AcDbEntity
  8
0
  6
Continuous
 62
    62
  0
POLYLINE
  5
22D
102
{ACAD_REACTORS
330
1CF
102
}
330
1F
100
AcDbEntity
  8
0
  6
Continuous
 62
    62
100
AcDb2dPolyline
 66
     1
 10
0.0
 20
0.0
 30
0.0
  0
VERTEX
  5
22E
330
22D
100
AcDbEntity
  8
0
  6
Continuous
 62
    62
100
AcDbVertex
100
AcDb2dVertex
 10
122.5
 20
180.5
 30
0.0
  0
VERTEX
  5
22F
330
22D
100
AcDbEntity
  8
0
  6
Continuous
 62
    62
100
AcDbVertex
100
AcDb2dVertex
 10
122.5
 20
178.75
 30
0.0
  0
SEQEND
  5
230
330
22D
100
AcDbEntity
  8
0
  6
Continuous
 62
    62
  0
POLYLINE
  5
231
102
{ACAD_REACTORS
330
1CF
102
}
330
1F
100
AcDbEntity
  8
0
  6
Continuous
 62
    62
100
AcDb2dPolyline
 66
     1
 10
0.0
 20
0.0
 30
0.0
  0
VERTEX
  5
232
330
231
100
AcDbEntity
  8
0
  6
Continuous
 62
    62
100
AcDbVertex
100
AcDb2dVertex
 10
122.5
 20
178.75
 30
0.0
  0
VERTEX
  5
233
330
231
100
AcDbEntity
  8
0
  6
Continuous
 62
    62
100
AcDbVertex
100
AcDb2dVertex
 10
82.25
 20
178.75
 30
0.0
  0
VERTEX
  5
234
330
231
100
AcDbEntity
  8
0
  6
Continuous
 62
    62
100
AcDbVertex
100
AcDb2dVertex
 10
82.25
 20
179.25
 30
0.0
  0
SEQEND
  5
235
330
231
100
AcDbEntity
  8
0
  6
Continuous
 62
    62
  0
POLYLINE
  5
236
102
{ACAD_REACTORS
330
1CF
102
}
330
1F
100
AcDbEntity
  8
0
  6
Continuous
 62
    62
100
AcDb2dPolyline
 66
     1
 10
0.0
 20
0.0
 30
0.0
  0
VERTEX
  5
237
330
236
100
AcDbEntity
  8
0
  6
Continuous
 62
    62
100
AcDbVertex
100
AcDb2dVertex
 10
72.5
 20
178.75
 30
0.0
  0
VERTEX
  5
238
330
236
100
AcDbEntity
  8
0
  6
Continuous
 62
    62
100
AcDbVertex
100
AcDb2dVertex
 10
32.5
 20
178.75
 30
0.0
  0
VERTEX
  5
239
330
236
100
AcDbEntity
  8
0
  6
Continuous
 62
    62
100
AcDbVertex
100
AcDb2dVertex
 10
32.5
 20
179.25
 30
0.0
  0
SEQEND
  5
23A
330
236
100
AcDbEntity
  8
0
  6
Continuous
 62
    62
  0
POLYLINE
  5
23B
102
{ACAD_REACTORS
330
1CF
102
}
330
1F
100
AcDbEntity
  8
0
  6
Continuous
 62
    62
100
AcDb2dPolyline
 66
     1
 10
0.0
 20
0.0
 30
0.0
  0
VERTEX
  5
23C
330
23B
100
AcDbEntity
  8
0
  6
Continuous
 62
    62
100
AcDbVertex
100
AcDb2dVertex
 10
72.5
 20
178.75
 30
0.0
  0
VERTEX
  5
23D
330
23B
100
AcDbEntity
  8
0
  6
Continuous
 62
    62
100
AcDbVertex
100
AcDb2dVertex
 10
82.25
 20
178.75
 30
0.0
  0
SEQEND
  5
23E
330
23B
100
AcDbEntity
  8
0
  6
Continuous
 62
    62
  0
POLYLINE
  5
23F
102
{ACAD_REACTORS
330
1CF
102
}
330
1F
100
AcDbEntity
  8
0
  6
Continuous
 62
    62
100
AcDb2dPolyline
 66
     1
 10
0.0
 20
0.0
 30
0.0
  0
VERTEX
  5
240
330
23F
100
AcDbEntity
  8
0
  6
Continuous
 62
    62
100
AcDbVertex
100
AcDb2dVertex
 10
7.5
 20
185.0
 30
0.0
  0
VERTEX
  5
241
330
23F
100
AcDbEntity
  8
0
  6
Continuous
 62
    62
100
AcDbVertex
100
AcDb2dVertex
 10
205.0
 20
185.0
 30
0.0
  0
VERTEX
  5
242
330
23F
100
AcDbEntity
  8
0
  6
Continuous
 62
    62
100
AcDbVertex
100
AcDb2dVertex
 10
205.0
 20
147.5
 30
0.0
  0
VERTEX
  5
243
330
23F
100
AcDbEntity
  8
0
  6
Continuous
 62
    62
100
AcDbVertex
100
AcDb2dVertex
 10
7.5
 20
147.5
 30
0.0
  0
VERTEX
  5
244
330
23F
100
AcDbEntity
  8
0
  6
Continuous
 62
    62
100
AcDbVertex
100
AcDb2dVertex
 10
7.5
 20
185.0
 30
0.0
  0
SEQEND
  5
245
330
23F
100
AcDbEntity
  8
0
  6
Continuous
 62
    62
  0
TEXT
  5
246
102
{ACAD_REACTORS
330
1CF
102
}
330
1F
100
AcDbEntity
  8
0
 62
    96
100
AcDbText
 10
12.5
 20
160.0
 30
0.0
 40
1.5
  1
Art.-Nr.:
  7
WSCAD_ALLGTEXT
100
AcDbText
  0
POLYLINE
  5
247
102
{ACAD_REACTORS
330
1CF
102
}
330
1F
100
AcDbEntity
  8
0
  6
Continuous
 62
    62
100
AcDb2dPolyline
 66
     1
 10
0.0
 20
0.0
 30
0.0
  0
VERTEX
  5
248
330
247
100
AcDbEntity
  8
0
  6
Continuous
 62
    62
100
AcDbVertex
100
AcDb2dVertex
 10
180.0
 20
176.25
 30
0.0
  0
VERTEX
  5
249
330
247
100
AcDbEntity
  8
0
  6
Continuous
 62
    62
100
AcDbVertex
100
AcDb2dVertex
 10
181.25
 20
176.25
 30
0.0
  0
VERTEX
  5
24A
330
247
100
AcDbEntity
  8
0
  6
Continuous
 62
    62
100
AcDbVertex
100
AcDb2dVertex
 10
181.25
 20
173.75
 30
0.0
  0
VERTEX
  5
24B
330
247
100
AcDbEntity
  8
0
  6
Continuous
 62
    62
100
AcDbVertex
100
AcDb2dVertex
 10
180.0
 20
173.75
 30
0.0
  0
VERTEX
  5
24C
330
247
100
AcDbEntity
  8
0
  6
Continuous
 62
    62
100
AcDbVertex
100
AcDb2dVertex
 10
180.0
 20
176.25
 30
0.0
  0
SEQEND
  5
24D
330
247
100
AcDbEntity
  8
0
  6
Continuous
 62
    62
  0
POLYLINE
  5
24E
102
{ACAD_REACTORS
330
1CF
102
}
330
1F
100
AcDbEntity
  8
0
  6
Continuous
 62
    62
100
AcDb2dPolyline
 66
     1
 10
0.0
 20
0.0
 30
0.0
  0
VERTEX
  5
24F
330
24E
100
AcDbEntity
  8
0
  6
Continuous
 62
    62
100
AcDbVertex
100
AcDb2dVertex
 10
182.5
 20
176.25
 30
0.0
  0
VERTEX
  5
250
330
24E
100
AcDbEntity
  8
0
  6
Continuous
 62
    62
100
AcDbVertex
100
AcDb2dVertex
 10
183.75
 20
176.25
 30
0.0
  0
VERTEX
  5
251
330
24E
100
AcDbEntity
  8
0
  6
Continuous
 62
    62
100
AcDbVertex
100
AcDb2dVertex
 10
183.75
 20
173.75
 30
0.0
  0
VERTEX
  5
252
330
24E
100
AcDbEntity
  8
0
  6
Continuous
 62
    62
100
AcDbVertex
100
AcDb2dVertex
 10
182.5
 20
173.75
 30
0.0
  0
VERTEX
  5
253
330
24E
100
AcDbEntity
  8
0
  6
Continuous
 62
    62
100
AcDbVertex
100
AcDb2dVertex
 10
182.5
 20
176.25
 30
0.0
  0
SEQEND
  5
254
330
24E
100
AcDbEntity
  8
0
  6
Continuous
 62
    62
  0
POLYLINE
  5
255
102
{ACAD_REACTORS
330
1CF
102
}
330
1F
100
AcDbEntity
  8
0
  6
Continuous
 62
    62
100
AcDb2dPolyline
 66
     1
 10
0.0
 20
0.0
 30
0.0
  0
VERTEX
  5
256
330
255
100
AcDbEntity
  8
0
  6
Continuous
 62
    62
100
AcDbVertex
100
AcDb2dVertex
 10
185.0
 20
176.25
 30
0.0
  0
VERTEX
  5
257
330
255
100
AcDbEntity
  8
0
  6
Continuous
 62
    62
100
AcDbVertex
100
AcDb2dVertex
 10
186.25
 20
176.25
 30
0.0
  0
VERTEX
  5
258
330
255
100
AcDbEntity
  8
0
  6
Continuous
 62
    62
100
AcDbVertex
100
AcDb2dVertex
 10
186.25
 20
173.75
 30
0.0
  0
VERTEX
  5
259
330
255
100
AcDbEntity
  8
0
  6
Continuous
 62
    62
100
AcDbVertex
100
AcDb2dVertex
 10
185.0
 20
173.75
 30
0.0
  0
VERTEX
  5
25A
330
255
100
AcDbEntity
  8
0
  6
Continuous
 62
    62
100
AcDbVertex
100
AcDb2dVertex
 10
185.0
 20
176.25
 30
0.0
  0
SEQEND
  5
25B
330
255
100
AcDbEntity
  8
0
  6
Continuous
 62
    62
  0
POLYLINE
  5
25C
102
{ACAD_REACTORS
330
1CF
102
}
330
1F
100
AcDbEntity
  8
0
  6
Continuous
 62
    62
100
AcDb2dPolyline
 66
     1
 10
0.0
 20
0.0
 30
0.0
  0
VERTEX
  5
25D
330
25C
100
AcDbEntity
  8
0
  6
Continuous
 62
    62
100
AcDbVertex
100
AcDb2dVertex
 10
187.5
 20
176.25
 30
0.0
  0
VERTEX
  5
25E
330
25C
100
AcDbEntity
  8
0
  6
Continuous
 62
    62
100
AcDbVertex
100
AcDb2dVertex
 10
188.75
 20
176.25
 30
0.0
  0
VERTEX
  5
25F
330
25C
100
AcDbEntity
  8
0
  6
Continuous
 62
    62
100
AcDbVertex
100
AcDb2dVertex
 10
188.75
 20
173.75
 30
0.0
  0
VERTEX
  5
260
330
25C
100
AcDbEntity
  8
0
  6
Continuous
 62
    62
100
AcDbVertex
100
AcDb2dVertex
 10
187.5
 20
173.75
 30
0.0
  0
VERTEX
  5
261
330
25C
100
AcDbEntity
  8
0
  6
Continuous
 62
    62
100
AcDbVertex
100
AcDb2dVertex
 10
187.5
 20
176.25
 30
0.0
  0
SEQEND
  5
262
330
25C
100
AcDbEntity
  8
0
  6
Continuous
 62
    62
  0
POLYLINE
  5
263
102
{ACAD_REACTORS
330
1CF
102
}
330
1F
100
AcDbEntity
  8
0
  6
Continuous
 62
    62
100
AcDb2dPolyline
 66
     1
 10
0.0
 20
0.0
 30
0.0
  0
VERTEX
  5
264
330
263
100
AcDbEntity
  8
0
  6
Continuous
 62
    62
100
AcDbVertex
100
AcDb2dVertex
 10
190.0
 20
176.25
 30
0.0
  0
VERTEX
  5
265
330
263
100
AcDbEntity
  8
0
  6
Continuous
 62
    62
100
AcDbVertex
100
AcDb2dVertex
 10
191.25
 20
176.25
 30
0.0
  0
VERTEX
  5
266
330
263
100
AcDbEntity
  8
0
  6
Continuous
 62
    62
100
AcDbVertex
100
AcDb2dVertex
 10
191.25
 20
173.75
 30
0.0
  0
VERTEX
  5
267
330
263
100
AcDbEntity
  8
0
  6
Continuous
 62
    62
100
AcDbVertex
100
AcDb2dVertex
 10
190.0
 20
173.75
 30
0.0
  0
VERTEX
  5
268
330
263
100
AcDbEntity
  8
0
  6
Continuous
 62
    62
100
AcDbVertex
100
AcDb2dVertex
 10
190.0
 20
176.25
 30
0.0
  0
SEQEND
  5
269
330
263
100
AcDbEntity
  8
0
  6
Continuous
 62
    62
  0
POLYLINE
  5
26A
102
{ACAD_REACTORS
330
1CF
102
}
330
1F
100
AcDbEntity
  8
0
  6
Continuous
 62
    62
100
AcDb2dPolyline
 66
     1
 10
0.0
 20
0.0
 30
0.0
  0
VERTEX
  5
26B
330
26A
100
AcDbEntity
  8
0
  6
Continuous
 62
    62
100
AcDbVertex
100
AcDb2dVertex
 10
192.5
 20
176.25
 30
0.0
  0
VERTEX
  5
26C
330
26A
100
AcDbEntity
  8
0
  6
Continuous
 62
    62
100
AcDbVertex
100
AcDb2dVertex
 10
193.75
 20
176.25
 30
0.0
  0
VERTEX
  5
26D
330
26A
100
AcDbEntity
  8
0
  6
Continuous
 62
    62
100
AcDbVertex
100
AcDb2dVertex
 10
193.75
 20
173.75
 30
0.0
  0
VERTEX
  5
26E
330
26A
100
AcDbEntity
  8
0
  6
Continuous
 62
    62
100
AcDbVertex
100
AcDb2dVertex
 10
192.5
 20
173.75
 30
0.0
  0
VERTEX
  5
26F
330
26A
100
AcDbEntity
  8
0
  6
Continuous
 62
    62
100
AcDbVertex
100
AcDb2dVertex
 10
192.5
 20
176.25
 30
0.0
  0
SEQEND
  5
270
330
26A
100
AcDbEntity
  8
0
  6
Continuous
 62
    62
  0
POLYLINE
  5
271
102
{ACAD_REACTORS
330
1CF
102
}
330
1F
100
AcDbEntity
  8
0
  6
Continuous
 62
    62
100
AcDb2dPolyline
 66
     1
 10
0.0
 20
0.0
 30
0.0
  0
VERTEX
  5
272
330
271
100
AcDbEntity
  8
0
  6
Continuous
 62
    62
100
AcDbVertex
100
AcDb2dVertex
 10
195.0
 20
176.25
 30
0.0
  0
VERTEX
  5
273
330
271
100
AcDbEntity
  8
0
  6
Continuous
 62
    62
100
AcDbVertex
100
AcDb2dVertex
 10
196.25
 20
176.25
 30
0.0
  0
VERTEX
  5
274
330
271
100
AcDbEntity
  8
0
  6
Continuous
 62
    62
100
AcDbVertex
100
AcDb2dVertex
 10
196.25
 20
173.75
 30
0.0
  0
VERTEX
  5
275
330
271
100
AcDbEntity
  8
0
  6
Continuous
 62
    62
100
AcDbVertex
100
AcDb2dVertex
 10
195.0
 20
173.75
 30
0.0
  0
VERTEX
  5
276
330
271
100
AcDbEntity
  8
0
  6
Continuous
 62
    62
100
AcDbVertex
100
AcDb2dVertex
 10
195.0
 20
176.25
 30
0.0
  0
SEQEND
  5
277
330
271
100
AcDbEntity
  8
0
  6
Continuous
 62
    62
  0
POLYLINE
  5
278
102
{ACAD_REACTORS
330
1CF
102
}
330
1F
100
AcDbEntity
  8
0
  6
Continuous
 62
    62
100
AcDb2dPolyline
 66
     1
 10
0.0
 20
0.0
 30
0.0
  0
VERTEX
  5
279
330
278
100
AcDbEntity
  8
0
  6
Continuous
 62
    62
100
AcDbVertex
100
AcDb2dVertex
 10
197.5
 20
176.25
 30
0.0
  0
VERTEX
  5
27A
330
278
100
AcDbEntity
  8
0
  6
Continuous
 62
    62
100
AcDbVertex
100
AcDb2dVertex
 10
198.75
 20
176.25
 30
0.0
  0
VERTEX
  5
27B
330
278
100
AcDbEntity
  8
0
  6
Continuous
 62
    62
100
AcDbVertex
100
AcDb2dVertex
 10
198.75
 20
173.75
 30
0.0
  0
VERTEX
  5
27C
330
278
100
AcDbEntity
  8
0
  6
Continuous
 62
    62
100
AcDbVertex
100
AcDb2dVertex
 10
197.5
 20
173.75
 30
0.0
  0
VERTEX
  5
27D
330
278
100
AcDbEntity
  8
0
  6
Continuous
 62
    62
100
AcDbVertex
100
AcDb2dVertex
 10
197.5
 20
176.25
 30
0.0
  0
SEQEND
  5
27E
330
278
100
AcDbEntity
  8
0
  6
Continuous
 62
    62
  0
POLYLINE
  5
27F
102
{ACAD_REACTORS
330
1CF
102
}
330
1F
100
AcDbEntity
  8
0
  6
Continuous
 62
    62
100
AcDb2dPolyline
 66
     1
 10
0.0
 20
0.0
 30
0.0
  0
VERTEX
  5
280
330
27F
100
AcDbEntity
  8
0
  6
Continuous
 62
    62
100
AcDbVertex
100
AcDb2dVertex
 10
178.75
 20
178.75
 30
0.0
  0
VERTEX
  5
281
330
27F
100
AcDbEntity
  8
0
  6
Continuous
 62
    62
100
AcDbVertex
100
AcDb2dVertex
 10
200.0
 20
178.75
 30
0.0
  0
VERTEX
  5
282
330
27F
100
AcDbEntity
  8
0
  6
Continuous
 62
    62
100
AcDbVertex
100
AcDb2dVertex
 10
200.0
 20
172.5
 30
0.0
  0
VERTEX
  5
283
330
27F
100
AcDbEntity
  8
0
  6
Continuous
 62
    62
100
AcDbVertex
100
AcDb2dVertex
 10
178.75
 20
172.5
 30
0.0
  0
VERTEX
  5
284
330
27F
100
AcDbEntity
  8
0
  6
Continuous
 62
    62
100
AcDbVertex
100
AcDb2dVertex
 10
178.75
 20
178.75
 30
0.0
  0
SEQEND
  5
285
330
27F
100
AcDbEntity
  8
0
  6
Continuous
 62
    62
  0
TEXT
  5
286
102
{ACAD_REACTORS
330
1CF
102
}
330
1F
100
AcDbEntity
  8
0
 62
    96
100
AcDbText
 10
179.75
 20
176.75
 30
0.0
 40
1.5
  1
1
  7
WSCAD_ALLGTEXT
100
AcDbText
  0
TEXT
  5
287
102
{ACAD_REACTORS
330
1CF
102
}
330
1F
100
AcDbEntity
  8
0
 62
    96
100
AcDbText
 10
182.25
 20
176.75
 30
0.0
 40
1.5
  1
2
  7
WSCAD_ALLGTEXT
100
AcDbText
  0
TEXT
  5
288
102
{ACAD_REACTORS
330
1CF
102
}
330
1F
100
AcDbEntity
  8
0
 62
    96
100
AcDbText
 10
184.75
 20
176.75
 30
0.0
 40
1.5
  1
3
  7
WSCAD_ALLGTEXT
100
AcDbText
  0
TEXT
  5
289
102
{ACAD_REACTORS
330
1CF
102
}
330
1F
100
AcDbEntity
  8
0
 62
    96
100
AcDbText
 10
187.5
 20
176.75
 30
0.0
 40
1.5
  1
4
  7
WSCAD_ALLGTEXT
100
AcDbText
  0
TEXT
  5
28A
102
{ACAD_REACTORS
330
1CF
102
}
330
1F
100
AcDbEntity
  8
0
 62
    96
100
AcDbText
 10
190.0
 20
176.75
 30
0.0
 40
1.5
  1
5
  7
WSCAD_ALLGTEXT
100
AcDbText
  0
TEXT
  5
28B
102
{ACAD_REACTORS
330
1CF
102
}
330
1F
100
AcDbEntity
  8
0
 62
    96
100
AcDbText
 10
192.5
 20
176.75
 30
0.0
 40
1.5
  1
6
  7
WSCAD_ALLGTEXT
100
AcDbText
  0
TEXT
  5
28C
102
{ACAD_REACTORS
330
1CF
102
}
330
1F
100
AcDbEntity
  8
0
 62
    96
100
AcDbText
 10
195.0
 20
176.75
 30
0.0
 40
1.5
  1
7
  7
WSCAD_ALLGTEXT
100
AcDbText
  0
TEXT
  5
28D
102
{ACAD_REACTORS
330
1CF
102
}
330
1F
100
AcDbEntity
  8
0
 62
    96
100
AcDbText
 10
197.25
 20
176.75
 30
0.0
 40
1.5
  1
8
  7
WSCAD_ALLGTEXT
100
AcDbText
  0
TEXT
  5
28E
102
{ACAD_REACTORS
330
1CF
102
}
330
1F
100
AcDbEntity
  8
0
 62
    96
100
AcDbText
 10
184.0
 20
170.0
 30
0.0
 40
1.5
  1
Adresse
  7
WSCAD_ALLGTEXT
100
AcDbText
  0
POLYLINE
  5
28F
102
{ACAD_REACTORS
330
1CF
102
}
330
1F
100
AcDbEntity
  8
0
  6
Continuous
 62
    62
100
AcDb2dPolyline
 66
     1
 10
0.0
 20
0.0
 30
0.0
  0
VERTEX
  5
290
330
28F
100
AcDbEntity
  8
0
  6
Continuous
 62
    62
100
AcDbVertex
100
AcDb2dVertex
 10
12.5
 20
155.0
 30
0.0
  0
VERTEX
  5
291
330
28F
100
AcDbEntity
  8
0
  6
Continuous
 62
    62
100
AcDbVertex
100
AcDb2dVertex
 10
25.0
 20
155.0
 30
0.0
  0
VERTEX
  5
292
330
28F
100
AcDbEntity
  8
0
  6
Continuous
 62
    62
100
AcDbVertex
100
AcDb2dVertex
 10
25.0
 20
147.5
 30
0.0
  0
SEQEND
  5
293
330
28F
100
AcDbEntity
  8
0
  6
Continuous
 62
    62
  0
POLYLINE
  5
294
102
{ACAD_REACTORS
330
1CF
102
}
330
1F
100
AcDbEntity
  8
0
  6
Continuous
 62
    62
100
AcDb2dPolyline
 66
     1
 10
0.0
 20
0.0
 30
0.0
  0
VERTEX
  5
295
330
294
100
AcDbEntity
  8
0
  6
Continuous
 62
    62
100
AcDbVertex
100
AcDb2dVertex
 10
37.5
 20
155.0
 30
0.0
  0
VERTEX
  5
296
330
294
100
AcDbEntity
  8
0
  6
Continuous
 62
    62
100
AcDbVertex
100
AcDb2dVertex
 10
37.5
 20
152.5
 30
0.0
  0
SEQEND
  5
297
330
294
100
AcDbEntity
  8
0
  6
Continuous
 62
    62
  0
POLYLINE
  5
298
102
{ACAD_REACTORS
330
1CF
102
}
330
1F
100
AcDbEntity
  8
0
  6
Continuous
 62
    62
100
AcDb2dPolyline
 66
     1
 10
0.0
 20
0.0
 30
0.0
  0
VERTEX
  5
299
330
298
100
AcDbEntity
  8
0
  6
Continuous
 62
    62
100
AcDbVertex
100
AcDb2dVertex
 10
37.5
 20
147.5
 30
0.0
  0
VERTEX
  5
29A
330
298
100
AcDbEntity
  8
0
  6
Continuous
 62
    62
100
AcDbVertex
100
AcDb2dVertex
 10
37.5
 20
150.0
 30
0.0
  0
VERTEX
  5
29B
330
298
100
AcDbEntity
  8
0
  6
Continuous
 62
    62
100
AcDbVertex
100
AcDb2dVertex
 10
36.25
 20
152.5
 30
0.0
  0
SEQEND
  5
29C
330
298
100
AcDbEntity
  8
0
  6
Continuous
 62
    62
  0
POLYLINE
  5
29D
102
{ACAD_REACTORS
330
1CF
102
}
330
1F
100
AcDbEntity
  8
0
  6
Continuous
 62
    62
100
AcDb2dPolyline
 66
     1
 10
0.0
 20
0.0
 30
0.0
  0
VERTEX
  5
29E
330
29D
100
AcDbEntity
  8
0
  6
Continuous
 62
    62
100
AcDbVertex
100
AcDb2dVertex
 10
37.5
 20
155.0
 30
0.0
  0
VERTEX
  5
29F
330
29D
100
AcDbEntity
  8
0
  6
Continuous
 62
    62
100
AcDbVertex
100
AcDb2dVertex
 10
50.0
 20
155.0
 30
0.0
  0
VERTEX
  5
2A0
330
29D
100
AcDbEntity
  8
0
  6
Continuous
 62
    62
100
AcDbVertex
100
AcDb2dVertex
 10
50.0
 20
147.5
 30
0.0
  0
SEQEND
  5
2A1
330
29D
100
AcDbEntity
  8
0
  6
Continuous
 62
    62
  0
POLYLINE
  5
2A2
102
{ACAD_REACTORS
330
1CF
102
}
330
1F
100
AcDbEntity
  8
0
  6
Continuous
 62
    62
100
AcDb2dPolyline
 66
     1
 10
0.0
 20
0.0
 30
0.0
  0
VERTEX
  5
2A3
330
2A2
100
AcDbEntity
  8
0
  6
Continuous
 62
    62
100
AcDbVertex
100
AcDb2dVertex
 10
62.5
 20
155.0
 30
0.0
  0
VERTEX
  5
2A4
330
2A2
100
AcDbEntity
  8
0
  6
Continuous
 62
    62
100
AcDbVertex
100
AcDb2dVertex
 10
62.5
 20
152.5
 30
0.0
  0
SEQEND
  5
2A5
330
2A2
100
AcDbEntity
  8
0
  6
Continuous
 62
    62
  0
POLYLINE
  5
2A6
102
{ACAD_REACTORS
330
1CF
102
}
330
1F
100
AcDbEntity
  8
0
  6
Continuous
 62
    62
100
AcDb2dPolyline
 66
     1
 10
0.0
 20
0.0
 30
0.0
  0
VERTEX
  5
2A7
330
2A6
100
AcDbEntity
  8
0
  6
Continuous
 62
    62
100
AcDbVertex
100
AcDb2dVertex
 10
62.5
 20
147.5
 30
0.0
  0
VERTEX
  5
2A8
330
2A6
100
AcDbEntity
  8
0
  6
Continuous
 62
    62
100
AcDbVertex
100
AcDb2dVertex
 10
62.5
 20
150.0
 30
0.0
  0
VERTEX
  5
2A9
330
2A6
100
AcDbEntity
  8
0
  6
Continuous
 62
    62
100
AcDbVertex
100
AcDb2dVertex
 10
61.25
 20
152.5
 30
0.0
  0
SEQEND
  5
2AA
330
2A6
100
AcDbEntity
  8
0
  6
Continuous
 62
    62
  0
POLYLINE
  5
2AB
102
{ACAD_REACTORS
330
1CF
102
}
330
1F
100
AcDbEntity
  8
0
  6
Continuous
 62
    62
100
AcDb2dPolyline
 66
     1
 10
0.0
 20
0.0
 30
0.0
  0
VERTEX
  5
2AC
330
2AB
100
AcDbEntity
  8
0
  6
Continuous
 62
    62
100
AcDbVertex
100
AcDb2dVertex
 10
62.5
 20
155.0
 30
0.0
  0
VERTEX
  5
2AD
330
2AB
100
AcDbEntity
  8
0
  6
Continuous
 62
    62
100
AcDbVertex
100
AcDb2dVertex
 10
75.0
 20
155.0
 30
0.0
  0
VERTEX
  5
2AE
330
2AB
100
AcDbEntity
  8
0
  6
Continuous
 62
    62
100
AcDbVertex
100
AcDb2dVertex
 10
75.0
 20
147.5
 30
0.0
  0
SEQEND
  5
2AF
330
2AB
100
AcDbEntity
  8
0
  6
Continuous
 62
    62
  0
POLYLINE
  5
2B0
102
{ACAD_REACTORS
330
1CF
102
}
330
1F
100
AcDbEntity
  8
0
  6
Continuous
 62
    62
100
AcDb2dPolyline
 66
     1
 10
0.0
 20
0.0
 30
0.0
  0
VERTEX
  5
2B1
330
2B0
100
AcDbEntity
  8
0
  6
Continuous
 62
    62
100
AcDbVertex
100
AcDb2dVertex
 10
87.5
 20
155.0
 30
0.0
  0
VERTEX
  5
2B2
330
2B0
100
AcDbEntity
  8
0
  6
Continuous
 62
    62
100
AcDbVertex
100
AcDb2dVertex
 10
87.5
 20
152.5
 30
0.0
  0
SEQEND
  5
2B3
330
2B0
100
AcDbEntity
  8
0
  6
Continuous
 62
    62
  0
POLYLINE
  5
2B4
102
{ACAD_REACTORS
330
1CF
102
}
330
1F
100
AcDbEntity
  8
0
  6
Continuous
 62
    62
100
AcDb2dPolyline
 66
     1
 10
0.0
 20
0.0
 30
0.0
  0
VERTEX
  5
2B5
330
2B4
100
AcDbEntity
  8
0
  6
Continuous
 62
    62
100
AcDbVertex
100
AcDb2dVertex
 10
87.5
 20
147.5
 30
0.0
  0
VERTEX
  5
2B6
330
2B4
100
AcDbEntity
  8
0
  6
Continuous
 62
    62
100
AcDbVertex
100
AcDb2dVertex
 10
87.5
 20
150.0
 30
0.0
  0
VERTEX
  5
2B7
330
2B4
100
AcDbEntity
  8
0
  6
Continuous
 62
    62
100
AcDbVertex
100
AcDb2dVertex
 10
86.25
 20
152.5
 30
0.0
  0
SEQEND
  5
2B8
330
2B4
100
AcDbEntity
  8
0
  6
Continuous
 62
    62
  0
POLYLINE
  5
2B9
102
{ACAD_REACTORS
330
1CF
102
}
330
1F
100
AcDbEntity
  8
0
  6
Continuous
 62
    62
100
AcDb2dPolyline
 66
     1
 10
0.0
 20
0.0
 30
0.0
  0
VERTEX
  5
2BA
330
2B9
100
AcDbEntity
  8
0
  6
Continuous
 62
    62
100
AcDbVertex
100
AcDb2dVertex
 10
87.5
 20
155.0
 30
0.0
  0
VERTEX
  5
2BB
330
2B9
100
AcDbEntity
  8
0
  6
Continuous
 62
    62
100
AcDbVertex
100
AcDb2dVertex
 10
100.0
 20
155.0
 30
0.0
  0
VERTEX
  5
2BC
330
2B9
100
AcDbEntity
  8
0
  6
Continuous
 62
    62
100
AcDbVertex
100
AcDb2dVertex
 10
100.0
 20
147.5
 30
0.0
  0
SEQEND
  5
2BD
330
2B9
100
AcDbEntity
  8
0
  6
Continuous
 62
    62
  0
POLYLINE
  5
2BE
102
{ACAD_REACTORS
330
1CF
102
}
330
1F
100
AcDbEntity
  8
0
  6
Continuous
 62
    62
100
AcDb2dPolyline
 66
     1
 10
0.0
 20
0.0
 30
0.0
  0
VERTEX
  5
2BF
330
2BE
100
AcDbEntity
  8
0
  6
Continuous
 62
    62
100
AcDbVertex
100
AcDb2dVertex
 10
112.5
 20
155.0
 30
0.0
  0
VERTEX
  5
2C0
330
2BE
100
AcDbEntity
  8
0
  6
Continuous
 62
    62
100
AcDbVertex
100
AcDb2dVertex
 10
112.5
 20
152.5
 30
0.0
  0
SEQEND
  5
2C1
330
2BE
100
AcDbEntity
  8
0
  6
Continuous
 62
    62
  0
POLYLINE
  5
2C2
102
{ACAD_REACTORS
330
1CF
102
}
330
1F
100
AcDbEntity
  8
0
  6
Continuous
 62
    62
100
AcDb2dPolyline
 66
     1
 10
0.0
 20
0.0
 30
0.0
  0
VERTEX
  5
2C3
330
2C2
100
AcDbEntity
  8
0
  6
Continuous
 62
    62
100
AcDbVertex
100
AcDb2dVertex
 10
112.5
 20
147.5
 30
0.0
  0
VERTEX
  5
2C4
330
2C2
100
AcDbEntity
  8
0
  6
Continuous
 62
    62
100
AcDbVertex
100
AcDb2dVertex
 10
112.5
 20
150.0
 30
0.0
  0
VERTEX
  5
2C5
330
2C2
100
AcDbEntity
  8
0
  6
Continuous
 62
    62
100
AcDbVertex
100
AcDb2dVertex
 10
111.25
 20
152.5
 30
0.0
  0
SEQEND
  5
2C6
330
2C2
100
AcDbEntity
  8
0
  6
Continuous
 62
    62
  0
POLYLINE
  5
2C7
102
{ACAD_REACTORS
330
1CF
102
}
330
1F
100
AcDbEntity
  8
0
  6
Continuous
 62
    62
100
AcDb2dPolyline
 66
     1
 10
0.0
 20
0.0
 30
0.0
  0
VERTEX
  5
2C8
330
2C7
100
AcDbEntity
  8
0
  6
Continuous
 62
    62
100
AcDbVertex
100
AcDb2dVertex
 10
112.5
 20
155.0
 30
0.0
  0
VERTEX
  5
2C9
330
2C7
100
AcDbEntity
  8
0
  6
Continuous
 62
    62
100
AcDbVertex
100
AcDb2dVertex
 10
125.0
 20
155.0
 30
0.0
  0
VERTEX
  5
2CA
330
2C7
100
AcDbEntity
  8
0
  6
Continuous
 62
    62
100
AcDbVertex
100
AcDb2dVertex
 10
125.0
 20
147.5
 30
0.0
  0
SEQEND
  5
2CB
330
2C7
100
AcDbEntity
  8
0
  6
Continuous
 62
    62
  0
POLYLINE
  5
2CC
102
{ACAD_REACTORS
330
1CF
102
}
330
1F
100
AcDbEntity
  8
0
  6
Continuous
 62
    62
100
AcDb2dPolyline
 66
     1
 10
0.0
 20
0.0
 30
0.0
  0
VERTEX
  5
2CD
330
2CC
100
AcDbEntity
  8
0
  6
Continuous
 62
    62
100
AcDbVertex
100
AcDb2dVertex
 10
137.5
 20
155.0
 30
0.0
  0
VERTEX
  5
2CE
330
2CC
100
AcDbEntity
  8
0
  6
Continuous
 62
    62
100
AcDbVertex
100
AcDb2dVertex
 10
137.5
 20
152.5
 30
0.0
  0
SEQEND
  5
2CF
330
2CC
100
AcDbEntity
  8
0
  6
Continuous
 62
    62
  0
POLYLINE
  5
2D0
102
{ACAD_REACTORS
330
1CF
102
}
330
1F
100
AcDbEntity
  8
0
  6
Continuous
 62
    62
100
AcDb2dPolyline
 66
     1
 10
0.0
 20
0.0
 30
0.0
  0
VERTEX
  5
2D1
330
2D0
100
AcDbEntity
  8
0
  6
Continuous
 62
    62
100
AcDbVertex
100
AcDb2dVertex
 10
137.5
 20
147.5
 30
0.0
  0
VERTEX
  5
2D2
330
2D0
100
AcDbEntity
  8
0
  6
Continuous
 62
    62
100
AcDbVertex
100
AcDb2dVertex
 10
137.5
 20
150.0
 30
0.0
  0
VERTEX
  5
2D3
330
2D0
100
AcDbEntity
  8
0
  6
Continuous
 62
    62
100
AcDbVertex
100
AcDb2dVertex
 10
136.25
 20
152.5
 30
0.0
  0
SEQEND
  5
2D4
330
2D0
100
AcDbEntity
  8
0
  6
Continuous
 62
    62
  0
POLYLINE
  5
2D5
102
{ACAD_REACTORS
330
1CF
102
}
330
1F
100
AcDbEntity
  8
0
  6
Continuous
 62
    62
100
AcDb2dPolyline
 66
     1
 10
0.0
 20
0.0
 30
0.0
  0
VERTEX
  5
2D6
330
2D5
100
AcDbEntity
  8
0
  6
Continuous
 62
    62
100
AcDbVertex
100
AcDb2dVertex
 10
137.5
 20
155.0
 30
0.0
  0
VERTEX
  5
2D7
330
2D5
100
AcDbEntity
  8
0
  6
Continuous
 62
    62
100
AcDbVertex
100
AcDb2dVertex
 10
150.0
 20
155.0
 30
0.0
  0
VERTEX
  5
2D8
330
2D5
100
AcDbEntity
  8
0
  6
Continuous
 62
    62
100
AcDbVertex
100
AcDb2dVertex
 10
150.0
 20
147.5
 30
0.0
  0
SEQEND
  5
2D9
330
2D5
100
AcDbEntity
  8
0
  6
Continuous
 62
    62
  0
POLYLINE
  5
2DA
102
{ACAD_REACTORS
330
1CF
102
}
330
1F
100
AcDbEntity
  8
0
  6
Continuous
 62
    62
100
AcDb2dPolyline
 66
     1
 10
0.0
 20
0.0
 30
0.0
  0
VERTEX
  5
2DB
330
2DA
100
AcDbEntity
  8
0
  6
Continuous
 62
    62
100
AcDbVertex
100
AcDb2dVertex
 10
162.5
 20
155.0
 30
0.0
  0
VERTEX
  5
2DC
330
2DA
100
AcDbEntity
  8
0
  6
Continuous
 62
    62
100
AcDbVertex
100
AcDb2dVertex
 10
162.5
 20
152.5
 30
0.0
  0
SEQEND
  5
2DD
330
2DA
100
AcDbEntity
  8
0
  6
Continuous
 62
    62
  0
POLYLINE
  5
2DE
102
{ACAD_REACTORS
330
1CF
102
}
330
1F
100
AcDbEntity
  8
0
  6
Continuous
 62
    62
100
AcDb2dPolyline
 66
     1
 10
0.0
 20
0.0
 30
0.0
  0
VERTEX
  5
2DF
330
2DE
100
AcDbEntity
  8
0
  6
Continuous
 62
    62
100
AcDbVertex
100
AcDb2dVertex
 10
162.5
 20
147.5
 30
0.0
  0
VERTEX
  5
2E0
330
2DE
100
AcDbEntity
  8
0
  6
Continuous
 62
    62
100
AcDbVertex
100
AcDb2dVertex
 10
162.5
 20
150.0
 30
0.0
  0
VERTEX
  5
2E1
330
2DE
100
AcDbEntity
  8
0
  6
Continuous
 62
    62
100
AcDbVertex
100
AcDb2dVertex
 10
161.25
 20
152.5
 30
0.0
  0
SEQEND
  5
2E2
330
2DE
100
AcDbEntity
  8
0
  6
Continuous
 62
    62
  0
POLYLINE
  5
2E3
102
{ACAD_REACTORS
330
1CF
102
}
330
1F
100
AcDbEntity
  8
0
  6
Continuous
 62
    62
100
AcDb2dPolyline
 66
     1
 10
0.0
 20
0.0
 30
0.0
  0
VERTEX
  5
2E4
330
2E3
100
AcDbEntity
  8
0
  6
Continuous
 62
    62
100
AcDbVertex
100
AcDb2dVertex
 10
162.5
 20
155.0
 30
0.0
  0
VERTEX
  5
2E5
330
2E3
100
AcDbEntity
  8
0
  6
Continuous
 62
    62
100
AcDbVertex
100
AcDb2dVertex
 10
175.0
 20
155.0
 30
0.0
  0
VERTEX
  5
2E6
330
2E3
100
AcDbEntity
  8
0
  6
Continuous
 62
    62
100
AcDbVertex
100
AcDb2dVertex
 10
175.0
 20
147.5
 30
0.0
  0
SEQEND
  5
2E7
330
2E3
100
AcDbEntity
  8
0
  6
Continuous
 62
    62
  0
POLYLINE
  5
2E8
102
{ACAD_REACTORS
330
1CF
102
}
330
1F
100
AcDbEntity
  8
0
  6
Continuous
 62
    62
100
AcDb2dPolyline
 66
     1
 10
0.0
 20
0.0
 30
0.0
  0
VERTEX
  5
2E9
330
2E8
100
AcDbEntity
  8
0
  6
Continuous
 62
    62
100
AcDbVertex
100
AcDb2dVertex
 10
187.5
 20
155.0
 30
0.0
  0
VERTEX
  5
2EA
330
2E8
100
AcDbEntity
  8
0
  6
Continuous
 62
    62
100
AcDbVertex
100
AcDb2dVertex
 10
187.5
 20
152.5
 30
0.0
  0
SEQEND
  5
2EB
330
2E8
100
AcDbEntity
  8
0
  6
Continuous
 62
    62
  0
POLYLINE
  5
2EC
102
{ACAD_REACTORS
330
1CF
102
}
330
1F
100
AcDbEntity
  8
0
  6
Continuous
 62
    62
100
AcDb2dPolyline
 66
     1
 10
0.0
 20
0.0
 30
0.0
  0
VERTEX
  5
2ED
330
2EC
100
AcDbEntity
  8
0
  6
Continuous
 62
    62
100
AcDbVertex
100
AcDb2dVertex
 10
187.5
 20
147.5
 30
0.0
  0
VERTEX
  5
2EE
330
2EC
100
AcDbEntity
  8
0
  6
Continuous
 62
    62
100
AcDbVertex
100
AcDb2dVertex
 10
187.5
 20
150.0
 30
0.0
  0
VERTEX
  5
2EF
330
2EC
100
AcDbEntity
  8
0
  6
Continuous
 62
    62
100
AcDbVertex
100
AcDb2dVertex
 10
186.25
 20
152.5
 30
0.0
  0
SEQEND
  5
2F0
330
2EC
100
AcDbEntity
  8
0
  6
Continuous
 62
    62
  0
POLYLINE
  5
2F1
102
{ACAD_REACTORS
330
1CF
102
}
330
1F
100
AcDbEntity
  8
0
  6
Continuous
 62
    62
100
AcDb2dPolyline
 66
     1
 10
0.0
 20
0.0
 30
0.0
  0
VERTEX
  5
2F2
330
2F1
100
AcDbEntity
  8
0
  6
Continuous
 62
    62
100
AcDbVertex
100
AcDb2dVertex
 10
187.5
 20
155.0
 30
0.0
  0
VERTEX
  5
2F3
330
2F1
100
AcDbEntity
  8
0
  6
Continuous
 62
    62
100
AcDbVertex
100
AcDb2dVertex
 10
200.0
 20
155.0
 30
0.0
  0
VERTEX
  5
2F4
330
2F1
100
AcDbEntity
  8
0
  6
Continuous
 62
    62
100
AcDbVertex
100
AcDb2dVertex
 10
200.0
 20
147.5
 30
0.0
  0
SEQEND
  5
2F5
330
2F1
100
AcDbEntity
  8
0
  6
Continuous
 62
    62
  0
TEXT
  5
2F6
102
{ACAD_REACTORS
330
1CF
102
}
330
1F
100
AcDbEntity
  8
0
 62
    96
100
AcDbText
 10
27.5
 20
160.0
 30
0.0
 40
1.5
  1
80022368
  7
WSCAD_ALLGTEXT
100
AcDbText
  0
TEXT
  5
2F7
102
{ACAD_REACTORS
330
1CF
102
}
330
1F
100
AcDbEntity
  8
0
 62
    96
100
AcDbText
 10
12.5
 20
165.0
 30
0.0
 40
3.0
  1
ISYGLT I/O-08H-230V - 16A
  7
WSCAD_ALLGTEXT
100
AcDbText
  0
TEXT
  5
2F8
102
{ACAD_REACTORS
330
1CF
102
}
330
1F
100
AcDbEntity
  8
0
 62
    96
100
AcDbText
 10
47.5
 20
160.0
 30
0.0
 40
1.5
  1
max. 230V/16A je Kontakt
  7
WSCAD_ALLGTEXT
100
AcDbText
  0
TEXT
  5
2F9
102
{ACAD_REACTORS
330
1CF
102
}
330
1F
100
AcDbEntity
  8
0
 62
     1
100
AcDbText
 10
13.25
 20
180.75
 30
0.0
 40
1.5
  1
Ub
 50
90.00000000000594
  7
WSCAD_ALLGTEXT
100
AcDbText
  0
TEXT
  5
2FA
102
{ACAD_REACTORS
330
1CF
102
}
330
1F
100
AcDbEntity
  8
0
 62
     1
100
AcDbText
 10
18.25
 20
180.75
 30
0.0
 40
1.5
  1
0V
 50
90.00000000000594
  7
WSCAD_ALLGTEXT
100
AcDbText
  0
TEXT
  5
2FB
102
{ACAD_REACTORS
330
1CF
102
}
330
1F
100
AcDbEntity
  8
0
 62
     1
100
AcDbText
 10
23.25
 20
176.25
 30
0.0
 40
1.5
  1
BUS A
 50
90.00000000000594
  7
WSCAD_ALLGTEXT
100
AcDbText
  0
TEXT
  5
2FC
102
{ACAD_REACTORS
330
1CF
102
}
330
1F
100
AcDbEntity
  8
0
 62
     1
100
AcDbText
 10
28.25
 20
176.25
 30
0.0
 40
1.5
  1
BUS B
 50
90.00000000000594
  7
WSCAD_ALLGTEXT
100
AcDbText
  0
TEXT
  5
2FD
102
{ACAD_REACTORS
330
1CF
102
}
330
1F
100
AcDbEntity
  8
0
 62
     1
100
AcDbText
 10
33.25
 20
180.25
 30
0.0
 40
1.5
  1
CE1
 50
90.00000000000594
  7
WSCAD_ALLGTEXT
100
AcDbText
  0
TEXT
  5
2FE
102
{ACAD_REACTORS
330
1CF
102
}
330
1F
100
AcDbEntity
  8
0
 62
     1
100
AcDbText
 10
43.25
 20
181.0
 30
0.0
 40
1.5
  1
E1
 50
90.00000000000594
  7
WSCAD_ALLGTEXT
100
AcDbText
  0
TEXT
  5
2FF
102
{ACAD_REACTORS
330
1CF
102
}
330
1F
100
AcDbEntity
  8
0
 62
     1
100
AcDbText
 10
53.25
 20
181.0
 30
0.0
 40
1.5
  1
E2
 50
90.00000000000594
  7
WSCAD_ALLGTEXT
100
AcDbText
  0
TEXT
  5
300
102
{ACAD_REACTORS
330
1CF
102
}
330
1F
100
AcDbEntity
  8
0
 62
     1
100
AcDbText
 10
63.25
 20
181.0
 30
0.0
 40
1.5
  1
E3
 50
90.00000000000594
  7
WSCAD_ALLGTEXT
100
AcDbText
  0
TEXT
  5
301
102
{ACAD_REACTORS
330
1CF
102
}
330
1F
100
AcDbEntity
  8
0
 62
     1
100
AcDbText
 10
73.25
 20
181.0
 30
0.0
 40
1.5
  1
E4
 50
90.00000000000594
  7
WSCAD_ALLGTEXT
100
AcDbText
  0
TEXT
  5
302
102
{ACAD_REACTORS
330
1CF
102
}
330
1F
100
AcDbEntity
  8
0
 62
     1
100
AcDbText
 10
93.25
 20
181.0
 30
0.0
 40
1.5
  1
E5
 50
90.00000000000594
  7
WSCAD_ALLGTEXT
100
AcDbText
  0
TEXT
  5
303
102
{ACAD_REACTORS
330
1CF
102
}
330
1F
100
AcDbEntity
  8
0
 62
     1
100
AcDbText
 10
103.25
 20
181.0
 30
0.0
 40
1.5
  1
E6
 50
90.00000000000594
  7
WSCAD_ALLGTEXT
100
AcDbText
  0
TEXT
  5
304
102
{ACAD_REACTORS
330
1CF
102
}
330
1F
100
AcDbEntity
  8
0
 62
     1
100
AcDbText
 10
113.25
 20
181.0
 30
0.0
 40
1.5
  1
E7
 50
90.00000000000594
  7
WSCAD_ALLGTEXT
100
AcDbText
  0
TEXT
  5
305
102
{ACAD_REACTORS
330
1CF
102
}
330
1F
100
AcDbEntity
  8
0
 62
     1
100
AcDbText
 10
123.25
 20
181.0
 30
0.0
 40
1.5
  1
E8
 50
90.00000000000594
  7
WSCAD_ALLGTEXT
100
AcDbText
  0
TEXT
  5
306
102
{ACAD_REACTORS
330
1CF
102
}
330
1F
100
AcDbEntity
  8
0
 62
     1
100
AcDbText
 10
15.0
 20
150.0
 30
0.0
 40
1.5
  1
A1
 50
90.00000000000594
  7
WSCAD_ALLGTEXT
100
AcDbText
  0
TEXT
  5
307
102
{ACAD_REACTORS
330
1CF
102
}
330
1F
100
AcDbEntity
  8
0
 62
     1
100
AcDbText
 10
27.5
 20
150.0
 30
0.0
 40
1.5
  1
C.1
 50
90.00000000000594
  7
WSCAD_ALLGTEXT
100
AcDbText
  0
TEXT
  5
308
102
{ACAD_REACTORS
330
1CF
102
}
330
1F
100
AcDbEntity
  8
0
 62
     1
100
AcDbText
 10
40.0
 20
150.0
 30
0.0
 40
1.5
  1
A2
 50
90.00000000000594
  7
WSCAD_ALLGTEXT
100
AcDbText
  0
TEXT
  5
309
102
{ACAD_REACTORS
330
1CF
102
}
330
1F
100
AcDbEntity
  8
0
 62
     1
100
AcDbText
 10
52.5
 20
150.0
 30
0.0
 40
1.5
  1
C.2
 50
90.00000000000594
  7
WSCAD_ALLGTEXT
100
AcDbText
  0
TEXT
  5
30A
102
{ACAD_REACTORS
330
1CF
102
}
330
1F
100
AcDbEntity
  8
0
 62
     1
100
AcDbText
 10
65.0
 20
150.0
 30
0.0
 40
1.5
  1
A3
 50
90.00000000000594
  7
WSCAD_ALLGTEXT
100
AcDbText
  0
TEXT
  5
30B
102
{ACAD_REACTORS
330
1CF
102
}
330
1F
100
AcDbEntity
  8
0
 62
     1
100
AcDbText
 10
77.5
 20
150.0
 30
0.0
 40
1.5
  1
C.3
 50
90.00000000000594
  7
WSCAD_ALLGTEXT
100
AcDbText
  0
TEXT
  5
30C
102
{ACAD_REACTORS
330
1CF
102
}
330
1F
100
AcDbEntity
  8
0
 62
     1
100
AcDbText
 10
90.0
 20
150.0
 30
0.0
 40
1.5
  1
A4
 50
90.00000000000594
  7
WSCAD_ALLGTEXT
100
AcDbText
  0
TEXT
  5
30D
102
{ACAD_REACTORS
330
1CF
102
}
330
1F
100
AcDbEntity
  8
0
 62
     1
100
AcDbText
 10
102.5
 20
150.0
 30
0.0
 40
1.5
  1
C.4
 50
90.00000000000594
  7
WSCAD_ALLGTEXT
100
AcDbText
  0
TEXT
  5
30E
102
{ACAD_REACTORS
330
1CF
102
}
330
1F
100
AcDbEntity
  8
0
 62
     1
100
AcDbText
 10
115.0
 20
150.0
 30
0.0
 40
1.5
  1
A5
 50
90.00000000000594
  7
WSCAD_ALLGTEXT
100
AcDbText
  0
TEXT
  5
30F
102
{ACAD_REACTORS
330
1CF
102
}
330
1F
100
AcDbEntity
  8
0
 62
     1
100
AcDbText
 10
127.5
 20
150.0
 30
0.0
 40
1.5
  1
C.5
 50
90.00000000000594
  7
WSCAD_ALLGTEXT
100
AcDbText
  0
TEXT
  5
310
102
{ACAD_REACTORS
330
1CF
102
}
330
1F
100
AcDbEntity
  8
0
 62
     1
100
AcDbText
 10
140.0
 20
150.0
 30
0.0
 40
1.5
  1
A6
 50
90.00000000000594
  7
WSCAD_ALLGTEXT
100
AcDbText
  0
TEXT
  5
311
102
{ACAD_REACTORS
330
1CF
102
}
330
1F
100
AcDbEntity
  8
0
 62
     1
100
AcDbText
 10
152.5
 20
150.0
 30
0.0
 40
1.5
  1
C.6
 50
90.00000000000594
  7
WSCAD_ALLGTEXT
100
AcDbText
  0
TEXT
  5
312
102
{ACAD_REACTORS
330
1CF
102
}
330
1F
100
AcDbEntity
  8
0
 62
     1
100
AcDbText
 10
165.0
 20
150.0
 30
0.0
 40
1.5
  1
A7
 50
90.00000000000594
  7
WSCAD_ALLGTEXT
100
AcDbText
  0
TEXT
  5
313
102
{ACAD_REACTORS
330
1CF
102
}
330
1F
100
AcDbEntity
  8
0
 62
     1
100
AcDbText
 10
177.5
 20
150.0
 30
0.0
 40
1.5
  1
C.7
 50
90.00000000000594
  7
WSCAD_ALLGTEXT
100
AcDbText
  0
TEXT
  5
314
102
{ACAD_REACTORS
330
1CF
102
}
330
1F
100
AcDbEntity
  8
0
 62
     1
100
AcDbText
 10
190.0
 20
150.0
 30
0.0
 40
1.5
  1
A8
 50
90.00000000000594
  7
WSCAD_ALLGTEXT
100
AcDbText
  0
TEXT
  5
315
102
{ACAD_REACTORS
330
1CF
102
}
330
1F
100
AcDbEntity
  8
0
 62
     1
100
AcDbText
 10
202.5
 20
150.0
 30
0.0
 40
1.5
  1
C.8
 50
90.00000000000594
  7
WSCAD_ALLGTEXT
100
AcDbText
  0
TEXT
  5
316
102
{ACAD_REACTORS
330
1CF
102
}
330
1F
100
AcDbEntity
  8
0
 62
     6
100
AcDbText
 10
12.5
 20
170.0
 30
0.0
 40
3.0
  1
-A
  7
WSCAD_ALLGTEXT
100
AcDbText
  0
POLYLINE
  5
317
330
1F
100
AcDbEntity
  8
0
  6
LONGDASH
 62
   152
100
AcDb2dPolyline
 66
     1
 10
0.0
 20
0.0
 30
0.0
  0
VERTEX
  5
318
330
317
100
AcDbEntity
  8
0
  6
LONGDASH
 62
   152
100
AcDbVertex
100
AcDb2dVertex
 10
37.5
 20
112.5
 30
0.0
  0
VERTEX
  5
319
330
317
100
AcDbEntity
  8
0
  6
LONGDASH
 62
   152
100
AcDbVertex
100
AcDb2dVertex
 10
37.5
 20
105.0
 30
0.0
  0
SEQEND
  5
31A
330
317
100
AcDbEntity
  8
0
  6
LONGDASH
 62
   152
  0
POLYLINE
  5
31B
330
1F
100
AcDbEntity
  8
0
  6
Continuous
 62
   152
100
AcDb2dPolyline
 66
     1
 10
0.0
 20
0.0
 30
0.0
  0
VERTEX
  5
31C
330
31B
100
AcDbEntity
  8
0
  6
Continuous
 62
   152
100
AcDbVertex
100
AcDb2dVertex
 10
37.5
 20
120.0
 30
0.0
  0
VERTEX
  5
31D
330
31B
100
AcDbEntity
  8
0
  6
Continuous
 62
   152
100
AcDbVertex
100
AcDb2dVertex
 10
37.5
 20
147.5
 30
0.0
  0
SEQEND
  5
31E
330
31B
100
AcDbEntity
  8
0
  6
Continuous
 62
   152
  0
POLYLINE
  5
31F
330
1F
100
AcDbEntity
  8
0
  6
LONGDASH
 62
   152
100
AcDb2dPolyline
 66
     1
 10
0.0
 20
0.0
 30
0.0
  0
VERTEX
  5
320
330
31F
100
AcDbEntity
  8
0
  6
LONGDASH
 62
   152
100
AcDbVertex
100
AcDb2dVertex
 10
12.5
 20
112.5
 30
0.0
  0
VERTEX
  5
321
330
31F
100
AcDbEntity
  8
0
  6
LONGDASH
 62
   152
100
AcDbVertex
100
AcDb2dVertex
 10
12.5
 20
105.0
 30
0.0
  0
SEQEND
  5
322
330
31F
100
AcDbEntity
  8
0
  6
LONGDASH
 62
   152
  0
POLYLINE
  5
323
330
1F
100
AcDbEntity
  8
0
  6
Continuous
 62
   152
100
AcDb2dPolyline
 66
     1
 10
0.0
 20
0.0
 30
0.0
  0
VERTEX
  5
324
330
323
100
AcDbEntity
  8
0
  6
Continuous
 62
   152
100
AcDbVertex
100
AcDb2dVertex
 10
12.5
 20
120.0
 30
0.0
  0
VERTEX
  5
325
330
323
100
AcDbEntity
  8
0
  6
Continuous
 62
   152
100
AcDbVertex
100
AcDb2dVertex
 10
12.5
 20
147.5
 30
0.0
  0
SEQEND
  5
326
330
323
100
AcDbEntity
  8
0
  6
Continuous
 62
   152
  0
POLYLINE
  5
327
330
1F
100
AcDbEntity
  8
0
  6
DASH
 62
    62
100
AcDb2dPolyline
 66
     1
 10
0.0
 20
0.0
 30
0.0
  0
VERTEX
  5
328
330
327
100
AcDbEntity
  8
0
  6
DASH
 62
    62
100
AcDbVertex
100
AcDb2dVertex
 10
24.5
 20
116.25
 30
0.0
  0
VERTEX
  5
329
330
327
100
AcDbEntity
  8
0
  6
DASH
 62
    62
100
AcDbVertex
100
AcDb2dVertex
 10
15.0
 20
116.25
 30
0.0
  0
SEQEND
  5
32A
330
327
100
AcDbEntity
  8
0
  6
DASH
 62
    62
  0
TEXT
  5
32B
330
1F
100
AcDbEntity
  8
0
 62
     7
100
AcDbText
 10
37.0
 20
105.5
 30
0.0
 40
2.25
  1
N
 50
90.00000000000594
  7
WSCAD_ALLGTEXT
100
AcDbText
  0
CIRCLE
  5
32D
102
{ACAD_REACTORS
330
32C
102
}
330
1F
100
AcDbEntity
  8
0
 62
    62
100
AcDbCircle
 10
37.5
 20
115.0
 30
0.0
 40
1.75
  0
POLYLINE
  5
32E
102
{ACAD_REACTORS
330
32C
102
}
330
1F
100
AcDbEntity
  8
0
  6
Continuous
 62
    62
100
AcDb2dPolyline
 66
     1
 10
0.0
 20
0.0
 30
0.0
  0
VERTEX
  5
32F
330
32E
100
AcDbEntity
  8
0
  6
Continuous
 62
    62
100
AcDbVertex
100
AcDb2dVertex
 10
36.25
 20
113.75
 30
0.0
  0
VERTEX
  5
330
330
32E
100
AcDbEntity
  8
0
  6
Continuous
 62
    62
100
AcDbVertex
100
AcDb2dVertex
 10
38.75
 20
116.25
 30
0.0
  0
SEQEND
  5
331
330
32E
100
AcDbEntity
  8
0
  6
Continuous
 62
    62
  0
POLYLINE
  5
332
102
{ACAD_REACTORS
330
32C
102
}
330
1F
100
AcDbEntity
  8
0
  6
Continuous
 62
    62
100
AcDb2dPolyline
 66
     1
 10
0.0
 20
0.0
 30
0.0
  0
VERTEX
  5
333
330
332
100
AcDbEntity
  8
0
  6
Continuous
 62
    62
100
AcDbVertex
100
AcDb2dVertex
 10
36.25
 20
116.25
 30
0.0
  0
VERTEX
  5
334
330
332
100
AcDbEntity
  8
0
  6
Continuous
 62
    62
100
AcDbVertex
100
AcDb2dVertex
 10
38.75
 20
113.75
 30
0.0
  0
SEQEND
  5
335
330
332
100
AcDbEntity
  8
0
  6
Continuous
 62
    62
  0
POLYLINE
  5
336
102
{ACAD_REACTORS
330
32C
102
}
330
1F
100
AcDbEntity
  8
0
  6
Continuous
 62
    62
100
AcDb2dPolyline
 66
     1
 10
0.0
 20
0.0
 30
0.0
  0
VERTEX
  5
337
330
336
100
AcDbEntity
  8
0
  6
Continuous
 62
    62
100
AcDbVertex
100
AcDb2dVertex
 10
37.5
 20
120.0
 30
0.0
  0
VERTEX
  5
338
330
336
100
AcDbEntity
  8
0
  6
Continuous
 62
    62
100
AcDbVertex
100
AcDb2dVertex
 10
37.5
 20
116.75
 30
0.0
  0
SEQEND
  5
339
330
336
100
AcDbEntity
  8
0
  6
Continuous
 62
    62
  0
POLYLINE
  5
33A
102
{ACAD_REACTORS
330
32C
102
}
330
1F
100
AcDbEntity
  8
0
  6
Continuous
 62
    62
100
AcDb2dPolyline
 66
     1
 10
0.0
 20
0.0
 30
0.0
  0
VERTEX
  5
33B
330
33A
100
AcDbEntity
  8
0
  6
Continuous
 62
    62
100
AcDbVertex
100
AcDb2dVertex
 10
37.5
 20
110.0
 30
0.0
  0
VERTEX
  5
33C
330
33A
100
AcDbEntity
  8
0
  6
Continuous
 62
    62
100
AcDbVertex
100
AcDb2dVertex
 10
37.5
 20
113.25
 30
0.0
  0
SEQEND
  5
33D
330
33A
100
AcDbEntity
  8
0
  6
Continuous
 62
    62
  0
TEXT
  5
33E
102
{ACAD_REACTORS
330
32C
102
}
330
1F
100
AcDbEntity
  8
0
 62
     1
100
AcDbText
 10
39.0
 20
109.0
 30
0.0
 40
1.5
  1
 
  7
WSCAD_ALLGTEXT
100
AcDbText
  0
POLYLINE
  5
340
102
{ACAD_REACTORS
330
33F
102
}
330
1F
100
AcDbEntity
  8
0
  6
Continuous
 62
    62
100
AcDb2dPolyline
 66
     1
 10
0.0
 20
0.0
 30
0.0
  0
VERTEX
  5
341
330
340
100
AcDbEntity
  8
0
  6
Continuous
 62
    62
100
AcDbVertex
100
AcDb2dVertex
 10
10.0
 20
117.5
 30
0.0
  0
VERTEX
  5
342
330
340
100
AcDbEntity
  8
0
  6
Continuous
 62
    62
100
AcDbVertex
100
AcDb2dVertex
 10
15.0
 20
117.5
 30
0.0
  0
VERTEX
  5
343
330
340
100
AcDbEntity
  8
0
  6
Continuous
 62
    62
100
AcDbVertex
100
AcDb2dVertex
 10
15.0
 20
115.0
 30
0.0
  0
VERTEX
  5
344
330
340
100
AcDbEntity
  8
0
  6
Continuous
 62
    62
100
AcDbVertex
100
AcDb2dVertex
 10
10.0
 20
115.0
 30
0.0
  0
VERTEX
  5
345
330
340
100
AcDbEntity
  8
0
  6
Continuous
 62
    62
100
AcDbVertex
100
AcDb2dVertex
 10
10.0
 20
117.5
 30
0.0
  0
SEQEND
  5
346
330
340
100
AcDbEntity
  8
0
  6
Continuous
 62
    62
  0
POLYLINE
  5
347
102
{ACAD_REACTORS
330
33F
102
}
330
1F
100
AcDbEntity
  8
0
  6
Continuous
 62
    62
100
AcDb2dPolyline
 66
     1
 10
0.0
 20
0.0
 30
0.0
  0
VERTEX
  5
348
330
347
100
AcDbEntity
  8
0
  6
Continuous
 62
    62
100
AcDbVertex
100
AcDb2dVertex
 10
12.5
 20
120.0
 30
0.0
  0
VERTEX
  5
349
330
347
100
AcDbEntity
  8
0
  6
Continuous
 62
    62
100
AcDbVertex
100
AcDb2dVertex
 10
12.5
 20
117.5
 30
0.0
  0
SEQEND
  5
34A
330
347
100
AcDbEntity
  8
0
  6
Continuous
 62
    62
  0
POLYLINE
  5
34B
102
{ACAD_REACTORS
330
33F
102
}
330
1F
100
AcDbEntity
  8
0
  6
Continuous
 62
    62
100
AcDb2dPolyline
 66
     1
 10
0.0
 20
0.0
 30
0.0
  0
VERTEX
  5
34C
330
34B
100
AcDbEntity
  8
0
  6
Continuous
 62
    62
100
AcDbVertex
100
AcDb2dVertex
 10
12.5
 20
115.0
 30
0.0
  0
VERTEX
  5
34D
330
34B
100
AcDbEntity
  8
0
  6
Continuous
 62
    62
100
AcDbVertex
100
AcDb2dVertex
 10
12.5
 20
112.5
 30
0.0
  0
SEQEND
  5
34E
330
34B
100
AcDbEntity
  8
0
  6
Continuous
 62
    62
  0
POLYLINE
  5
350
102
{ACAD_REACTORS
330
34F
102
}
330
1F
100
AcDbEntity
  8
0
  6
Continuous
 62
    62
100
AcDb2dPolyline
 66
     1
 10
0.0
 20
0.0
 30
0.0
  0
VERTEX
  5
351
330
350
100
AcDbEntity
  8
0
  6
Continuous
 62
    62
100
AcDbVertex
100
AcDb2dVertex
 10
25.0
 20
112.5
 30
0.0
  0
VERTEX
  5
352
330
350
100
AcDbEntity
  8
0
  6
Continuous
 62
    62
100
AcDbVertex
100
AcDb2dVertex
 10
25.0
 20
115.0
 30
0.0
  0
VERTEX
  5
353
330
350
100
AcDbEntity
  8
0
  6
Continuous
 62
    62
100
AcDbVertex
100
AcDb2dVertex
 10
24.0
 20
117.75
 30
0.0
  0
SEQEND
  5
354
330
350
100
AcDbEntity
  8
0
  6
Continuous
 62
    62
  0
POLYLINE
  5
355
102
{ACAD_REACTORS
330
34F
102
}
330
1F
100
AcDbEntity
  8
0
  6
Continuous
 62
    62
100
AcDb2dPolyline
 66
     1
 10
0.0
 20
0.0
 30
0.0
  0
VERTEX
  5
356
330
355
100
AcDbEntity
  8
0
  6
Continuous
 62
    62
100
AcDbVertex
100
AcDb2dVertex
 10
25.0
 20
117.5
 30
0.0
  0
VERTEX
  5
357
330
355
100
AcDbEntity
  8
0
  6
Continuous
 62
    62
100
AcDbVertex
100
AcDb2dVertex
 10
25.0
 20
120.0
 30
0.0
  0
SEQEND
  5
358
330
355
100
AcDbEntity
  8
0
  6
Continuous
 62
    62
  0
TEXT
  5
359
102
{ACAD_REACTORS
330
34F
102
}
330
1F
100
AcDbEntity
  8
0
 62
     1
100
AcDbText
 10
26.25
 20
120.5
 30
0.0
 40
1.5
  1
 
  7
WSCAD_ALLGTEXT
100
AcDbText
  0
TEXT
  5
35A
102
{ACAD_REACTORS
330
34F
102
}
330
1F
100
AcDbEntity
  8
0
 62
     1
100
AcDbText
 10
26.25
 20
113.0
 30
0.0
 40
1.5
  1
 
  7
WSCAD_ALLGTEXT
100
AcDbText
  0
POLYLINE
  5
35C
102
{ACAD_REACTORS
330
35B
102
}
330
1F
100
AcDbEntity
  8
0
  6
Continuous
 62
    62
100
AcDb2dPolyline
 66
     1
 10
0.0
 20
0.0
 30
0.0
  0
VERTEX
  5
35D
330
35C
100
AcDbEntity
  8
0
  6
Continuous
 62
    62
100
AcDbVertex
100
AcDb2dVertex
 10
21.25
 20
112.5
 30
0.0
  0
VERTEX
  5
35E
330
35C
100
AcDbEntity
  8
0
  6
Continuous
 62
    62
100
AcDbVertex
100
AcDb2dVertex
 10
21.25
 20
115.0
 30
0.0
  0
VERTEX
  5
35F
330
35C
100
AcDbEntity
  8
0
  6
Continuous
 62
    62
100
AcDbVertex
100
AcDb2dVertex
 10
20.25
 20
117.75
 30
0.0
  0
SEQEND
  5
360
330
35C
100
AcDbEntity
  8
0
  6
Continuous
 62
    62
  0
POLYLINE
  5
361
102
{ACAD_REACTORS
330
35B
102
}
330
1F
100
AcDbEntity
  8
0
  6
Continuous
 62
    62
100
AcDb2dPolyline
 66
     1
 10
0.0
 20
0.0
 30
0.0
  0
VERTEX
  5
362
330
361
100
AcDbEntity
  8
0
  6
Continuous
 62
    62
100
AcDbVertex
100
AcDb2dVertex
 10
21.25
 20
117.5
 30
0.0
  0
VERTEX
  5
363
330
361
100
AcDbEntity
  8
0
  6
Continuous
 62
    62
100
AcDbVertex
100
AcDb2dVertex
 10
21.25
 20
120.0
 30
0.0
  0
SEQEND
  5
364
330
361
100
AcDbEntity
  8
0
  6
Continuous
 62
    62
  0
TEXT
  5
365
102
{ACAD_REACTORS
330
35B
102
}
330
1F
100
AcDbEntity
  8
0
 62
     1
100
AcDbText
 10
22.5
 20
120.5
 30
0.0
 40
1.5
  1
 
  7
WSCAD_ALLGTEXT
100
AcDbText
  0
TEXT
  5
366
102
{ACAD_REACTORS
330
35B
102
}
330
1F
100
AcDbEntity
  8
0
 62
     1
100
AcDbText
 10
22.5
 20
113.0
 30
0.0
 40
1.5
  1
 
  7
WSCAD_ALLGTEXT
100
AcDbText
  0
POLYLINE
  5
368
102
{ACAD_REACTORS
330
367
102
}
330
1F
100
AcDbEntity
  8
0
  6
Continuous
 62
    62
100
AcDb2dPolyline
 66
     1
 10
0.0
 20
0.0
 30
0.0
  0
VERTEX
  5
369
330
368
100
AcDbEntity
  8
0
  6
Continuous
 62
    62
100
AcDbVertex
100
AcDb2dVertex
 10
17.5
 20
112.5
 30
0.0
  0
VERTEX
  5
36A
330
368
100
AcDbEntity
  8
0
  6
Continuous
 62
    62
100
AcDbVertex
100
AcDb2dVertex
 10
17.5
 20
115.0
 30
0.0
  0
VERTEX
  5
36B
330
368
100
AcDbEntity
  8
0
  6
Continuous
 62
    62
100
AcDbVertex
100
AcDb2dVertex
 10
16.5
 20
117.75
 30
0.0
  0
SEQEND
  5
36C
330
368
100
AcDbEntity
  8
0
  6
Continuous
 62
    62
  0
POLYLINE
  5
36D
102
{ACAD_REACTORS
330
367
102
}
330
1F
100
AcDbEntity
  8
0
  6
Continuous
 62
    62
100
AcDb2dPolyline
 66
     1
 10
0.0
 20
0.0
 30
0.0
  0
VERTEX
  5
36E
330
36D
100
AcDbEntity
  8
0
  6
Continuous
 62
    62
100
AcDbVertex
100
AcDb2dVertex
 10
17.5
 20
117.5
 30
0.0
  0
VERTEX
  5
36F
330
36D
100
AcDbEntity
  8
0
  6
Continuous
 62
    62
100
AcDbVertex
100
AcDb2dVertex
 10
17.5
 20
120.0
 30
0.0
  0
SEQEND
  5
370
330
36D
100
AcDbEntity
  8
0
  6
Continuous
 62
    62
  0
TEXT
  5
371
102
{ACAD_REACTORS
330
367
102
}
330
1F
100
AcDbEntity
  8
0
 62
     1
100
AcDbText
 10
18.75
 20
120.5
 30
0.0
 40
1.5
  1
 
  7
WSCAD_ALLGTEXT
100
AcDbText
  0
TEXT
  5
372
102
{ACAD_REACTORS
330
367
102
}
330
1F
100
AcDbEntity
  8
0
 62
     1
100
AcDbText
 10
18.75
 20
113.0
 30
0.0
 40
1.5
  1
 
  7
WSCAD_ALLGTEXT
100
AcDbText
  0
TEXT
  5
373
330
1F
100
AcDbEntity
  8
0
 62
     7
100
AcDbText
 10
12.0
 20
105.5
 30
0.0
 40
2.25
  1
N
 50
90.00000000000594
  7
WSCAD_ALLGTEXT
100
AcDbText
  0
ENDSEC
  0
SECTION
  2
OBJECTS
  0
DICTIONARY
  5
C
330
0
100
AcDbDictionary
281
     1
  3
ACAD_GROUP
350
D
  3
ACAD_LAYOUT
350
1A
  3
ACAD_MATERIAL
350
3B
  3
ACAD_MLEADERSTYLE
350
376
  3
ACAD_MLINESTYLE
350
17
  3
ACAD_PLOTSETTINGS
350
19
  3
ACAD_PLOTSTYLENAME
350
E
  3
ACAD_SCALELIST
350
4F
  3
ACAD_VISUALSTYLE
350
2A
  3
AcDbVariableDictionary
350
374
  0
DICTIONARY
  5
D
102
{ACAD_REACTORS
330
C
102
}
330
C
100
AcDbDictionary
281
     1
  3
WSCAD1
350
B3
  3
WSCAD10
350
18D
  3
WSCAD11
350
1CF
  3
WSCAD12
350
32C
  3
WSCAD13
350
33F
  3
WSCAD14
350
34F
  3
WSCAD15
350
35B
  3
WSCAD16
350
367
  3
WSCAD2
350
C6
  3
WSCAD3
350
101
  3
WSCAD4
350
116
  3
WSCAD5
350
12B
  3
WSCAD6
350
140
  3
WSCAD7
350
161
  3
WSCAD8
350
175
  3
WSCAD9
350
181
  0
DICTIONARY
  5
1A
102
{ACAD_REACTORS
330
C
102
}
330
C
100
AcDbDictionary
281
     1
  3
Layout1
350
1E
  3
Layout2
350
26
  3
Model
350
22
  0
DICTIONARY
  5
3B
102
{ACAD_REACTORS
330
C
102
}
330
C
100
AcDbDictionary
281
     1
  3
ByBlock
350
3D
  3
ByLayer
350
3C
  3
Global
350
3E
  0
DICTIONARY
  5
376
102
{ACAD_REACTORS
330
C
102
}
330
C
100
AcDbDictionary
281
     1
  0
DICTIONARY
  5
17
102
{ACAD_REACTORS
330
C
102
}
330
C
100
AcDbDictionary
281
     1
  3
Standard
350
18
  0
DICTIONARY
  5
19
102
{ACAD_REACTORS
330
C
102
}
330
C
100
AcDbDictionary
281
     1
  0
ACDBDICTIONARYWDFLT
  5
E
102
{ACAD_REACTORS
330
C
102
}
330
C
100
AcDbDictionary
281
     1
  3
Normal
350
F
100
AcDbDictionaryWithDefault
340
F
  0
DICTIONARY
  5
4F
102
{ACAD_REACTORS
330
C
102
}
330
C
100
AcDbDictionary
281
     1
  3
A0
350
50
  3
A1
350
51
  3
A2
350
52
  3
A3
350
53
  3
A4
350
54
  3
A5
350
55
  3
A6
350
56
  3
A7
350
57
  3
A8
350
58
  3
A9
350
59
  3
B0
350
5A
  3
B1
350
5B
  3
B2
350
5C
  3
B3
350
5D
  3
B4
350
5E
  3
B5
350
5F
  3
B6
350
60
  3
B7
350
61
  3
B8
350
62
  3
B9
350
63
  3
C0
350
64
  3
C1
350
65
  3
C2
350
66
  3
C3
350
67
  3
C4
350
68
  3
C5
350
69
  3
C6
350
6A
  3
C7
350
6B
  3
C8
350
6C
  3
C9
350
6D
  3
D0
350
6E
  3
D1
350
6F
  3
D2
350
70
  0
DICTIONARY
  5
2A
102
{ACAD_REACTORS
330
C
102
}
330
C
100
AcDbDictionary
281
     1
  3
2dWireframe
350
2F
  3
3D Hidden
350
31
  3
3dWireframe
350
30
  3
Basic
350
32
  3
Brighten
350
36
  3
ColorChange
350
3A
  3
Conceptual
350
34
  3
Dim
350
35
  3
Facepattern
350
39
  3
Flat
350
2B
  3
FlatWithEdges
350
2C
  3
Gouraud
350
2D
  3
GouraudWithEdges
350
2E
  3
Linepattern
350
38
  3
Realistic
350
33
  3
Thicken
350
37
  0
DICTIONARY
  5
374
102
{ACAD_REACTORS
330
C
102
}
330
C
100
AcDbDictionary
281
     1
  3
CANNOSCALE
350
379
  3
DIMASSOC
350
37A
  3
HIDETEXT
350
37B
  3
PSOLHEIGHT
350
378
  3
PSOLWIDTH
350
377
  0
GROUP
  5
B3
102
{ACAD_REACTORS
330
D
102
}
330
D
100
AcDbGroup
300

 70
     0
 71
     1
340
B4
340
B5
340
B9
340
BD
340
C1
340
C5
  0
GROUP
  5
18D
102
{ACAD_REACTORS
330
D
102
}
330
D
100
AcDbGroup
300

 70
     0
 71
     1
340
18E
340
193
340
197
340
198
  0
GROUP
  5
1CF
102
{ACAD_REACTORS
330
D
102
}
330
D
100
AcDbGroup
300

 70
     0
 71
     1
340
1D0
340
1D4
340
1D9
340
1E0
340
1E4
340
1EB
340
1EF
340
1F6
340
1FA
340
201
340
205
340
20C
340
210
340
217
340
21B
340
222
340
226
340
22D
340
231
340
236
340
23B
340
23F
340
246
340
247
340
24E
340
255
340
25C
340
263
340
26A
340
271
340
278
340
27F
340
286
340
287
340
288
340
289
340
28A
340
28B
340
28C
340
28D
340
28E
340
28F
340
294
340
298
340
29D
340
2A2
340
2A6
340
2AB
340
2B0
340
2B4
340
2B9
340
2BE
340
2C2
340
2C7
340
2CC
340
2D0
340
2D5
340
2DA
340
2DE
340
2E3
340
2E8
340
2EC
340
2F1
340
2F6
340
2F7
340
2F8
340
2F9
340
2FA
340
2FB
340
2FC
340
2FD
340
2FE
340
2FF
340
300
340
301
340
302
340
303
340
304
340
305
340
306
340
307
340
308
340
309
340
30A
340
30B
340
30C
340
30D
340
30E
340
30F
340
310
340
311
340
312
340
313
340
314
340
315
340
316
  0
GROUP
  5
32C
102
{ACAD_REACTORS
330
D
102
}
330
D
100
AcDbGroup
300

 70
     0
 71
     1
340
32D
340
32E
340
332
340
336
340
33A
340
33E
  0
GROUP
  5
33F
102
{ACAD_REACTORS
330
D
102
}
330
D
100
AcDbGroup
300

 70
     0
 71
     1
340
340
340
347
340
34B
  0
GROUP
  5
34F
102
{ACAD_REACTORS
330
D
102
}
330
D
100
AcDbGroup
300

 70
     0
 71
     1
340
350
340
355
340
359
340
35A
  0
GROUP
  5
35B
102
{ACAD_REACTORS
330
D
102
}
330
D
100
AcDbGroup
300

 70
     0
 71
     1
340
35C
340
361
340
365
340
366
  0
GROUP
  5
367
102
{ACAD_REACTORS
330
D
102
}
330
D
100
AcDbGroup
300

 70
     0
 71
     1
340
368
340
36D
340
371
340
372
  0
GROUP
  5
C6
102
{ACAD_REACTORS
330
D
102
}
330
D
100
AcDbGroup
300

 70
     0
 71
     1
340
C7
340
C8
340
CC
340
D0
340
D4
340
D8
  0
GROUP
  5
101
102
{ACAD_REACTORS
330
D
102
}
330
D
100
AcDbGroup
300

 70
     0
 71
     1
340
102
340
109
340
10D
340
111
  0
GROUP
  5
116
102
{ACAD_REACTORS
330
D
102
}
330
D
100
AcDbGroup
300

 70
     0
 71
     1
340
117
340
11E
340
122
340
126
  0
GROUP
  5
12B
102
{ACAD_REACTORS
330
D
102
}
330
D
100
AcDbGroup
300

 70
     0
 71
     1
340
12C
340
133
340
137
340
13B
  0
GROUP
  5
140
102
{ACAD_REACTORS
330
D
102
}
330
D
100
AcDbGroup
300

 70
     0
 71
     1
340
141
340
145
340
14A
340
150
340
155
340
159
340
15D
  0
GROUP
  5
161
102
{ACAD_REACTORS
330
D
102
}
330
D
100
AcDbGroup
300

 70
     0
 71
     1
340
162
340
167
340
16B
340
16C
  0
GROUP
  5
175
102
{ACAD_REACTORS
330
D
102
}
330
D
100
AcDbGroup
300

 70
     0
 71
     1
340
176
340
17B
340
17F
340
180
  0
GROUP
  5
181
102
{ACAD_REACTORS
330
D
102
}
330
D
100
AcDbGroup
300

 70
     0
 71
     1
340
182
340
187
340
18B
340
18C
  0
LAYOUT
  5
1E
102
{ACAD_REACTORS
330
1A
102
}
330
1A
100
AcDbPlotSettings
  1

  2
none_device
  4

  6

 40
0.0
 41
0.0
 42
0.0
 43
0.0
 44
0.0
 45
0.0
 46
0.0
 47
0.0
 48
0.0
 49
0.0
140
0.0
141
0.0
142
1.0
143
1.0
 70
   688
 72
     0
 73
     0
 74
     5
  7

 75
    16
147
1.0
148
0.0
149
0.0
100
AcDbLayout
  1
Layout1
 70
     1
 71
     1
 10
0.0
 20
0.0
 11
420.0
 21
297.0
 12
0.0
 22
0.0
 32
0.0
 14
1.000000000000000E+20
 24
1.000000000000000E+20
 34
1.000000000000000E+20
 15
-1.000000000000000E+20
 25
-1.000000000000000E+20
 35
-1.000000000000000E+20
146
0.0
 13
0.0
 23
0.0
 33
0.0
 16
1.0
 26
0.0
 36
0.0
 17
0.0
 27
1.0
 37
0.0
 76
     0
330
1B
  0
LAYOUT
  5
26
102
{ACAD_REACTORS
330
1A
102
}
330
1A
100
AcDbPlotSettings
  1

  2
none_device
  4

  6

 40
0.0
 41
0.0
 42
0.0
 43
0.0
 44
0.0
 45
0.0
 46
0.0
 47
0.0
 48
0.0
 49
0.0
140
0.0
141
0.0
142
1.0
143
1.0
 70
   688
 72
     0
 73
     0
 74
     5
  7

 75
    16
147
1.0
148
0.0
149
0.0
100
AcDbLayout
  1
Layout2
 70
     1
 71
     2
 10
0.0
 20
0.0
 11
0.0
 21
0.0
 12
0.0
 22
0.0
 32
0.0
 14
0.0
 24
0.0
 34
0.0
 15
0.0
 25
0.0
 35
0.0
146
0.0
 13
0.0
 23
0.0
 33
0.0
 16
1.0
 26
0.0
 36
0.0
 17
0.0
 27
1.0
 37
0.0
 76
     0
330
23
  0
LAYOUT
  5
22
102
{ACAD_REACTORS
330
1A
102
}
330
1A
100
AcDbPlotSettings
  1

  2
none_device
  4

  6

 40
0.0
 41
0.0
 42
0.0
 43
0.0
 44
0.0
 45
0.0
 46
0.0
 47
0.0
 48
0.0
 49
0.0
140
0.0
141
0.0
142
1.0
143
1.0
 70
  1712
 72
     0
 73
     0
 74
     0
  7

 75
     0
147
1.0
148
0.0
149
0.0
100
AcDbLayout
  1
Model
 70
     1
 71
     0
 10
0.0
 20
0.0
 11
420.0
 21
297.0
 12
0.0
 22
0.0
 32
0.0
 14
0.0
 24
0.0
 34
0.0
 15
207.0
 25
297.0
 35
0.0
146
0.0
 13
0.0
 23
0.0
 33
0.0
 16
1.0
 26
0.0
 36
0.0
 17
0.0
 27
1.0
 37
0.0
 76
     0
330
1F
331
29
  0
MATERIAL
  5
3D
102
{ACAD_REACTORS
330
3B
102
}
102
{ACAD_XDICTIONARY
360
39E
102
}
330
3B
100
AcDbMaterial
  1
ByBlock
  0
MATERIAL
  5
3C
102
{ACAD_REACTORS
330
3B
102
}
102
{ACAD_XDICTIONARY
360
39C
102
}
330
3B
100
AcDbMaterial
  1
ByLayer
  0
MATERIAL
  5
3E
102
{ACAD_REACTORS
330
3B
102
}
102
{ACAD_XDICTIONARY
360
3A0
102
}
330
3B
100
AcDbMaterial
  1
Global
  0
MLINESTYLE
  5
18
102
{ACAD_REACTORS
330
17
102
}
330
17
100
AcDbMlineStyle
  2
Standard
 70
     0
  3

 62
   256
 51
90.0
 52
90.0
 71
     2
 49
0.5
 62
   256
  6
BYLAYER
 49
-0.5
 62
   256
  6
BYLAYER
  0
ACDBPLACEHOLDER
  5
F
102
{ACAD_REACTORS
330
E
102
}
330
E
  0
SCALE
  5
50
102
{ACAD_REACTORS
330
4F
102
}
330
4F
100
AcDbScale
 70
     0
300
1:1
140
1.0
141
1.0
290
     1
  0
SCALE
  5
51
102
{ACAD_REACTORS
330
4F
102
}
330
4F
100
AcDbScale
 70
     0
300
1:2
140
1.0
141
2.0
290
     0
  0
SCALE
  5
52
102
{ACAD_REACTORS
330
4F
102
}
330
4F
100
AcDbScale
 70
     0
300
1:4
140
1.0
141
4.0
290
     0
  0
SCALE
  5
53
102
{ACAD_REACTORS
330
4F
102
}
330
4F
100
AcDbScale
 70
     0
300
1:5
140
1.0
141
5.0
290
     0
  0
SCALE
  5
54
102
{ACAD_REACTORS
330
4F
102
}
330
4F
100
AcDbScale
 70
     0
300
1:8
140
1.0
141
8.0
290
     0
  0
SCALE
  5
55
102
{ACAD_REACTORS
330
4F
102
}
330
4F
100
AcDbScale
 70
     0
300
1:10
140
1.0
141
10.0
290
     0
  0
SCALE
  5
56
102
{ACAD_REACTORS
330
4F
102
}
330
4F
100
AcDbScale
 70
     0
300
1:16
140
1.0
141
16.0
290
     0
  0
SCALE
  5
57
102
{ACAD_REACTORS
330
4F
102
}
330
4F
100
AcDbScale
 70
     0
300
1:20
140
1.0
141
20.0
290
     0
  0
SCALE
  5
58
102
{ACAD_REACTORS
330
4F
102
}
330
4F
100
AcDbScale
 70
     0
300
1:30
140
1.0
141
30.0
290
     0
  0
SCALE
  5
59
102
{ACAD_REACTORS
330
4F
102
}
330
4F
100
AcDbScale
 70
     0
300
1:40
140
1.0
141
40.0
290
     0
  0
SCALE
  5
5A
102
{ACAD_REACTORS
330
4F
102
}
330
4F
100
AcDbScale
 70
     0
300
1:50
140
1.0
141
50.0
290
     0
  0
SCALE
  5
5B
102
{ACAD_REACTORS
330
4F
102
}
330
4F
100
AcDbScale
 70
     0
300
1:100
140
1.0
141
100.0
290
     0
  0
SCALE
  5
5C
102
{ACAD_REACTORS
330
4F
102
}
330
4F
100
AcDbScale
 70
     0
300
2:1
140
2.0
141
1.0
290
     0
  0
SCALE
  5
5D
102
{ACAD_REACTORS
330
4F
102
}
330
4F
100
AcDbScale
 70
     0
300
4:1
140
4.0
141
1.0
290
     0
  0
SCALE
  5
5E
102
{ACAD_REACTORS
330
4F
102
}
330
4F
100
AcDbScale
 70
     0
300
8:1
140
8.0
141
1.0
290
     0
  0
SCALE
  5
5F
102
{ACAD_REACTORS
330
4F
102
}
330
4F
100
AcDbScale
 70
     0
300
10:1
140
10.0
141
1.0
290
     0
  0
SCALE
  5
60
102
{ACAD_REACTORS
330
4F
102
}
330
4F
100
AcDbScale
 70
     0
300
100:1
140
100.0
141
1.0
290
     0
  0
SCALE
  5
61
102
{ACAD_REACTORS
330
4F
102
}
330
4F
100
AcDbScale
 70
     0
300
1/128" = 1'-0"
140
0.0078125
141
12.0
290
     0
  0
SCALE
  5
62
102
{ACAD_REACTORS
330
4F
102
}
330
4F
100
AcDbScale
 70
     0
300
1/64" = 1'-0"
140
0.015625
141
12.0
290
     0
  0
SCALE
  5
63
102
{ACAD_REACTORS
330
4F
102
}
330
4F
100
AcDbScale
 70
     0
300
1/32" = 1'-0"
140
0.03125
141
12.0
290
     0
  0
SCALE
  5
64
102
{ACAD_REACTORS
330
4F
102
}
330
4F
100
AcDbScale
 70
     0
300
1/16" = 1'-0"
140
0.0625
141
12.0
290
     0
  0
SCALE
  5
65
102
{ACAD_REACTORS
330
4F
102
}
330
4F
100
AcDbScale
 70
     0
300
3/32" = 1'-0"
140
0.09375
141
12.0
290
     0
  0
SCALE
  5
66
102
{ACAD_REACTORS
330
4F
102
}
330
4F
100
AcDbScale
 70
     0
300
1/8" = 1'-0"
140
0.125
141
12.0
290
     0
  0
SCALE
  5
67
102
{ACAD_REACTORS
330
4F
102
}
330
4F
100
AcDbScale
 70
     0
300
3/16" = 1'-0"
140
0.1875
141
12.0
290
     0
  0
SCALE
  5
68
102
{ACAD_REACTORS
330
4F
102
}
330
4F
100
AcDbScale
 70
     0
300
1/4" = 1'-0"
140
0.25
141
12.0
290
     0
  0
SCALE
  5
69
102
{ACAD_REACTORS
330
4F
102
}
330
4F
100
AcDbScale
 70
     0
300
3/8" = 1'-0"
140
0.375
141
12.0
290
     0
  0
SCALE
  5
6A
102
{ACAD_REACTORS
330
4F
102
}
330
4F
100
AcDbScale
 70
     0
300
1/2" = 1'-0"
140
0.5
141
12.0
290
     0
  0
SCALE
  5
6B
102
{ACAD_REACTORS
330
4F
102
}
330
4F
100
AcDbScale
 70
     0
300
3/4" = 1'-0"
140
0.75
141
12.0
290
     0
  0
SCALE
  5
6C
102
{ACAD_REACTORS
330
4F
102
}
330
4F
100
AcDbScale
 70
     0
300
1" = 1'-0"
140
1.0
141
12.0
290
     0
  0
SCALE
  5
6D
102
{ACAD_REACTORS
330
4F
102
}
330
4F
100
AcDbScale
 70
     0
300
1-1/2" = 1'-0"
140
1.5
141
12.0
290
     0
  0
SCALE
  5
6E
102
{ACAD_REACTORS
330
4F
102
}
330
4F
100
AcDbScale
 70
     0
300
3" = 1'-0"
140
3.0
141
12.0
290
     0
  0
SCALE
  5
6F
102
{ACAD_REACTORS
330
4F
102
}
330
4F
100
AcDbScale
 70
     0
300
6" = 1'-0"
140
6.0
141
12.0
290
     0
  0
SCALE
  5
70
102
{ACAD_REACTORS
330
4F
102
}
330
4F
100
AcDbScale
 70
     0
300
1'-0" = 1'-0"
140
12.0
141
12.0
290
     0
  0
VISUALSTYLE
  5
2F
102
{ACAD_REACTORS
330
2A
102
}
102
{ACAD_XDICTIONARY
360
384
102
}
330
2A
100
AcDbVisualStyle
  2
2dWireframe
 70
     4
 71
     0
 72
     2
 73
     0
 90
        0
 40
-0.6
 41
-30.0
 62
     5
 63
     7
 74
     1
 91
        4
 64
     7
 65
   257
 75
     1
175
     1
 42
1.0
 92
        0
 66
   257
 43
1.0
 76
     1
 77
     6
 78
     2
 67
     7
 79
     5
170
     0
171
     0
290
     0
174
     0
 93
        1
 44
0.0
173
     0
291
     0
 45
0.0
1001
ACAD
1000
AcDbSavedByObjectVersion
1070
     0
  0
VISUALSTYLE
  5
31
102
{ACAD_REACTORS
330
2A
102
}
102
{ACAD_XDICTIONARY
360
388
102
}
330
2A
100
AcDbVisualStyle
  2
3D Hidden
 70
     6
 71
     1
 72
     2
 73
     2
 90
        0
 40
-0.6
 41
-30.0
 62
     5
 63
     7
 74
     2
 91
        2
 64
     7
 65
   257
 75
     2
175
     1
 42
40.0
 92
        0
 66
   257
 43
1.0
 76
     1
 77
     6
 78
     2
 67
     7
 79
     3
170
     0
171
     0
290
     0
174
     0
 93
        1
 44
0.0
173
     0
291
     0
 45
0.0
1001
ACAD
1000
AcDbSavedByObjectVersion
1070
     0
  0
VISUALSTYLE
  5
30
102
{ACAD_REACTORS
330
2A
102
}
102
{ACAD_XDICTIONARY
360
386
102
}
330
2A
100
AcDbVisualStyle
  2
3dWireframe
 70
     5
 71
     0
 72
     2
 73
     0
 90
        0
 40
-0.6
 41
-30.0
 62
     5
 63
     7
 74
     1
 91
        4
 64
     7
 65
   257
 75
     1
175
     1
 42
1.0
 92
        0
 66
   257
 43
1.0
 76
     1
 77
     6
 78
     2
 67
     7
 79
     5
170
     0
171
     0
290
     0
174
     0
 93
        1
 44
0.0
173
     0
291
     0
 45
0.0
1001
ACAD
1000
AcDbSavedByObjectVersion
1070
     0
  0
VISUALSTYLE
  5
32
102
{ACAD_REACTORS
330
2A
102
}
102
{ACAD_XDICTIONARY
360
38A
102
}
330
2A
100
AcDbVisualStyle
  2
Basic
 70
     7
 71
     1
 72
     0
 73
     1
 90
        0
 40
-0.6
 41
-30.0
 62
     5
 63
     7
 74
     0
 91
        4
 64
     7
 65
   257
 75
     1
175
     1
 42
1.0
 92
        8
 66
     7
 43
1.0
 76
     1
 77
     6
 78
     2
 67
     7
 79
     5
170
     0
171
     0
290
     0
174
     0
 93
        1
 44
0.0
173
     0
291
     1
 45
0.0
1001
ACAD
1000
AcDbSavedByObjectVersion
1070
     0
  0
VISUALSTYLE
  5
36
102
{ACAD_REACTORS
330
2A
102
}
102
{ACAD_XDICTIONARY
360
392
102
}
330
2A
100
AcDbVisualStyle
  2
Brighten
 70
    12
 71
     2
 72
     2
 73
     0
 90
        0
 40
-0.6
 41
-30.0
 62
     5
 63
     7
 74
     1
 91
        4
 64
     7
 65
   257
 75
     1
175
     1
 42
1.0
 92
        8
 66
     7
 43
1.0
 76
     1
 77
     6
 78
     2
 67
     7
 79
     5
170
     0
171
     0
290
     0
174
     0
 93
        1
 44
50.0
173
     0
291
     1
 45
0.0
1001
ACAD
1000
AcDbSavedByObjectVersion
1070
     0
  0
VISUALSTYLE
  5
3A
102
{ACAD_REACTORS
330
2A
102
}
102
{ACAD_XDICTIONARY
360
39A
102
}
330
2A
100
AcDbVisualStyle
  2
ColorChange
 70
    16
 71
     2
 72
     2
 73
     3
 90
        0
 40
-0.6
 41
-30.0
 62
     5
 63
     8
 74
     1
 91
        4
 64
     7
 65
   257
 75
     1
175
     1
 42
1.0
 92
        8
 66
     8
 43
1.0
 76
     1
 77
     6
 78
     2
 67
     7
 79
     5
170
     0
171
     0
290
     0
174
     0
 93
        1
 44
0.0
173
     0
291
     1
 45
0.0
1001
ACAD
1000
AcDbSavedByObjectVersion
1070
     0
  0
VISUALSTYLE
  5
34
102
{ACAD_REACTORS
330
2A
102
}
102
{ACAD_XDICTIONARY
360
38E
102
}
330
2A
100
AcDbVisualStyle
  2
Conceptual
 70
     9
 71
     3
 72
     2
 73
     0
 90
        0
 40
-0.6
 41
-30.0
 62
     5
 63
     7
 74
     2
 91
        2
 64
     7
 65
   257
 75
     1
175
     1
 42
40.0
 92
        8
 66
     7
 43
1.0
 76
     1
 77
     6
 78
     2
 67
     7
 79
     3
170
     0
171
     0
290
     0
174
     0
 93
        1
 44
0.0
173
     0
291
     0
 45
0.0
1001
ACAD
1000
AcDbSavedByObjectVersion
1070
     0
  0
VISUALSTYLE
  5
35
102
{ACAD_REACTORS
330
2A
102
}
102
{ACAD_XDICTIONARY
360
390
102
}
330
2A
100
AcDbVisualStyle
  2
Dim
 70
    11
 71
     2
 72
     2
 73
     0
 90
        0
 40
-0.6
 41
-30.0
 62
     5
 63
     7
 74
     1
 91
        4
 64
     7
 65
   257
 75
     1
175
     1
 42
1.0
 92
        8
 66
     7
 43
1.0
 76
     1
 77
     6
 78
     2
 67
     7
 79
     5
170
     0
171
     0
290
     0
174
     0
 93
        1
 44
-50.0
173
     0
291
     1
 45
0.0
1001
ACAD
1000
AcDbSavedByObjectVersion
1070
     0
  0
VISUALSTYLE
  5
39
102
{ACAD_REACTORS
330
2A
102
}
102
{ACAD_XDICTIONARY
360
398
102
}
330
2A
100
AcDbVisualStyle
  2
Facepattern
 70
    15
 71
     2
 72
     2
 73
     0
 90
        0
 40
-0.6
 41
-30.0
 62
     5
 63
     7
 74
     1
 91
        4
 64
     7
 65
   257
 75
     1
175
     1
 42
1.0
 92
        8
 66
     7
 43
1.0
 76
     1
 77
     6
 78
     2
 67
     7
 79
     5
170
     0
171
     0
290
     0
174
     0
 93
        1
 44
0.0
173
     0
291
     1
 45
0.0
1001
ACAD
1000
AcDbSavedByObjectVersion
1070
     0
  0
VISUALSTYLE
  5
2B
102
{ACAD_REACTORS
330
2A
102
}
102
{ACAD_XDICTIONARY
360
37C
102
}
330
2A
100
AcDbVisualStyle
  2
Flat
 70
     0
 71
     2
 72
     1
 73
     1
 90
        2
 40
-0.6
 41
30.0
 62
     5
 63
     7
 74
     0
 91
        4
 64
     7
 65
   257
 75
     1
175
     1
 42
1.0
 92
        8
 66
     7
 43
1.0
 76
     1
 77
     6
 78
     2
 67
     7
 79
     5
170
     0
171
     0
290
     0
174
     0
 93
       13
 44
0.0
173
     0
291
     1
 45
0.0
1001
ACAD
1000
AcDbSavedByObjectVersion
1070
     0
  0
VISUALSTYLE
  5
2C
102
{ACAD_REACTORS
330
2A
102
}
102
{ACAD_XDICTIONARY
360
37E
102
}
330
2A
100
AcDbVisualStyle
  2
FlatWithEdges
 70
     1
 71
     2
 72
     1
 73
     1
 90
        2
 40
-0.6
 41
30.0
 62
     5
 63
     7
 74
     1
 91
        4
 64
     7
 65
   257
 75
     1
175
     1
 42
1.0
 92
        0
 66
   257
 43
1.0
 76
     1
 77
     6
 78
     2
 67
     7
 79
     5
170
     0
171
     0
290
     0
174
     0
 93
       13
 44
0.0
173
     0
291
     1
 45
0.0
1001
ACAD
1000
AcDbSavedByObjectVersion
1070
     0
  0
VISUALSTYLE
  5
2D
102
{ACAD_REACTORS
330
2A
102
}
102
{ACAD_XDICTIONARY
360
380
102
}
330
2A
100
AcDbVisualStyle
  2
Gouraud
 70
     2
 71
     2
 72
     2
 73
     1
 90
        2
 40
-0.6
 41
30.0
 62
     5
 63
     7
 74
     0
 91
        4
 64
     7
 65
   257
 75
     1
175
     1
 42
1.0
 92
        0
 66
     7
 43
1.0
 76
     1
 77
     6
 78
     2
 67
     7
 79
     5
170
     0
171
     0
290
     0
174
     0
 93
       13
 44
0.0
173
     0
291
     1
 45
0.0
1001
ACAD
1000
AcDbSavedByObjectVersion
1070
     0
  0
VISUALSTYLE
  5
2E
102
{ACAD_REACTORS
330
2A
102
}
102
{ACAD_XDICTIONARY
360
382
102
}
330
2A
100
AcDbVisualStyle
  2
GouraudWithEdges
 70
     3
 71
     2
 72
     2
 73
     1
 90
        2
 40
-0.6
 41
30.0
 62
     5
 63
     7
 74
     1
 91
        4
 64
     7
 65
   257
 75
     1
175
     1
 42
1.0
 92
        0
 66
   257
 43
1.0
 76
     1
 77
     6
 78
     2
 67
     7
 79
     5
170
     0
171
     0
290
     0
174
     0
 93
       13
 44
0.0
173
     0
291
     1
 45
0.0
1001
ACAD
1000
AcDbSavedByObjectVersion
1070
     0
  0
VISUALSTYLE
  5
38
102
{ACAD_REACTORS
330
2A
102
}
102
{ACAD_XDICTIONARY
360
396
102
}
330
2A
100
AcDbVisualStyle
  2
Linepattern
 70
    14
 71
     2
 72
     2
 73
     0
 90
        0
 40
-0.6
 41
-30.0
 62
     5
 63
     7
 74
     1
 91
        4
 64
     7
 65
   257
 75
     7
175
     7
 42
1.0
 92
        8
 66
     7
 43
1.0
 76
     1
 77
     6
 78
     2
 67
     7
 79
     5
170
     0
171
     0
290
     0
174
     0
 93
        1
 44
0.0
173
     0
291
     1
 45
0.0
1001
ACAD
1000
AcDbSavedByObjectVersion
1070
     0
  0
VISUALSTYLE
  5
33
102
{ACAD_REACTORS
330
2A
102
}
102
{ACAD_XDICTIONARY
360
38C
102
}
330
2A
100
AcDbVisualStyle
  2
Realistic
 70
     8
 71
     2
 72
     2
 73
     0
 90
        0
 40
-0.6
 41
-30.0
 62
     5
 63
     7
 74
     1
 91
        0
 64
     7
 65
   257
 75
     1
175
     1
 42
1.0
 92
        8
 66
     8
 43
1.0
 76
     1
 77
     6
 78
     2
 67
     7
 79
     5
170
     0
171
     0
290
     0
174
     0
 93
       13
 44
0.0
173
     0
291
     0
 45
0.0
1001
ACAD
1000
AcDbSavedByObjectVersion
1070
     0
  0
VISUALSTYLE
  5
37
102
{ACAD_REACTORS
330
2A
102
}
102
{ACAD_XDICTIONARY
360
394
102
}
330
2A
100
AcDbVisualStyle
  2
Thicken
 70
    13
 71
     2
 72
     2
 73
     0
 90
        0
 40
-0.6
 41
-30.0
 62
     5
 63
     7
 74
     1
 91
        4
 64
     7
 65
   257
 75
     1
175
     1
 42
1.0
 92
       12
 66
     7
 43
1.0
 76
     1
 77
     6
 78
     2
 67
     7
 79
     5
170
     0
171
     0
290
     0
174
     0
 93
        1
 44
0.0
173
     0
291
     1
 45
0.0
1001
ACAD
1000
AcDbSavedByObjectVersion
1070
     0
  0
DICTIONARYVAR
  5
379
102
{ACAD_REACTORS
330
374
102
}
330
374
100
DictionaryVariables
280
     0
  1
1:1
  0
DICTIONARYVAR
  5
37A
102
{ACAD_REACTORS
330
374
102
}
330
374
100
DictionaryVariables
280
     0
  1
2
  0
DICTIONARYVAR
  5
37B
102
{ACAD_REACTORS
330
374
102
}
330
374
100
DictionaryVariables
280
     0
  1
1
  0
DICTIONARYVAR
  5
378
102
{ACAD_REACTORS
330
374
102
}
330
374
100
DictionaryVariables
280
     0
  1
80.000000
  0
DICTIONARYVAR
  5
377
102
{ACAD_REACTORS
330
374
102
}
330
374
100
DictionaryVariables
280
     0
  1
5.000000
  0
DICTIONARY
  5
39E
330
3D
100
AcDbDictionary
280
     1
281
     1
  3
ACAD_XREC_ROUNDTRIP
360
39F
  0
DICTIONARY
  5
39C
330
3C
100
AcDbDictionary
280
     1
281
     1
  3
ACAD_XREC_ROUNDTRIP
360
39D
  0
DICTIONARY
  5
3A0
330
3E
100
AcDbDictionary
280
     1
281
     1
  3
ACAD_XREC_ROUNDTRIP
360
3A1
  0
DICTIONARY
  5
384
330
2F
100
AcDbDictionary
280
     1
281
     1
  3
ACAD_XREC_ROUNDTRIP
360
385
  0
DICTIONARY
  5
388
330
31
100
AcDbDictionary
280
     1
281
     1
  3
ACAD_XREC_ROUNDTRIP
360
389
  0
DICTIONARY
  5
386
330
30
100
AcDbDictionary
280
     1
281
     1
  3
ACAD_XREC_ROUNDTRIP
360
387
  0
DICTIONARY
  5
38A
330
32
100
AcDbDictionary
280
     1
281
     1
  3
ACAD_XREC_ROUNDTRIP
360
38B
  0
DICTIONARY
  5
392
330
36
100
AcDbDictionary
280
     1
281
     1
  3
ACAD_XREC_ROUNDTRIP
360
393
  0
DICTIONARY
  5
39A
330
3A
100
AcDbDictionary
280
     1
281
     1
  3
ACAD_XREC_ROUNDTRIP
360
39B
  0
DICTIONARY
  5
38E
330
34
100
AcDbDictionary
280
     1
281
     1
  3
ACAD_XREC_ROUNDTRIP
360
38F
  0
DICTIONARY
  5
390
330
35
100
AcDbDictionary
280
     1
281
     1
  3
ACAD_XREC_ROUNDTRIP
360
391
  0
DICTIONARY
  5
398
330
39
100
AcDbDictionary
280
     1
281
     1
  3
ACAD_XREC_ROUNDTRIP
360
399
  0
DICTIONARY
  5
37C
330
2B
100
AcDbDictionary
280
     1
281
     1
  3
ACAD_XREC_ROUNDTRIP
360
37D
  0
DICTIONARY
  5
37E
330
2C
100
AcDbDictionary
280
     1
281
     1
  3
ACAD_XREC_ROUNDTRIP
360
37F
  0
DICTIONARY
  5
380
330
2D
100
AcDbDictionary
280
     1
281
     1
  3
ACAD_XREC_ROUNDTRIP
360
381
  0
DICTIONARY
  5
382
330
2E
100
AcDbDictionary
280
     1
281
     1
  3
ACAD_XREC_ROUNDTRIP
360
383
  0
DICTIONARY
  5
396
330
38
100
AcDbDictionary
280
     1
281
     1
  3
ACAD_XREC_ROUNDTRIP
360
397
  0
DICTIONARY
  5
38C
330
33
100
AcDbDictionary
280
     1
281
     1
  3
ACAD_XREC_ROUNDTRIP
360
38D
  0
DICTIONARY
  5
394
330
37
100
AcDbDictionary
280
     1
281
     1
  3
ACAD_XREC_ROUNDTRIP
360
395
  0
XRECORD
  5
39F
102
{ACAD_REACTORS
330
39E
102
}
330
39E
100
AcDbXrecord
280
     1
102
MATERIAL
148
0.0
149
0.0
149
0.0
 93
        0
 94
      127
282
     0
 72
     1
 77
     1
171
     1
175
     1
179
     1
273
     0
  0
XRECORD
  5
39D
102
{ACAD_REACTORS
330
39C
102
}
330
39C
100
AcDbXrecord
280
     1
102
MATERIAL
148
0.0
149
0.0
149
0.0
 93
        0
 94
      127
282
     0
 72
     1
 77
     1
171
     1
175
     1
179
     1
273
     0
  0
XRECORD
  5
3A1
102
{ACAD_REACTORS
330
3A0
102
}
330
3A0
100
AcDbXrecord
280
     1
102
MATERIAL
148
0.0
149
0.0
149
0.0
 93
        0
 94
      127
282
     0
 72
     1
 77
     1
171
     1
175
     1
179
     1
273
     0
  0
XRECORD
  5
385
102
{ACAD_REACTORS
330
384
102
}
330
384
100
AcDbXrecord
280
     1
102
RTVSPropertyOp0
 70
     1
102
RTVSPropertyOp1
 70
     1
102
RTVSPropertyOp2
 70
     1
102
RTVSPropertyOp3
 70
     1
102
RTVSPropertyOp4
 70
     1
102
RTVSPropertyOp5
 70
     1
102
RTVSPropertyOp6
 70
     1
102
RTVSPropertyOp7
 70
     1
102
RTVSPropertyOp8
 70
     1
102
RTVSPropertyOp9
 70
     1
102
RTVSPropertyOp10
 70
     1
102
RTVSPropertyOp11
 70
     1
102
RTVSPropertyOp12
 70
     1
102
RTVSPropertyOp13
 70
     1
102
RTVSPropertyOp14
 70
     1
102
RTVSPropertyOp15
 70
     1
102
RTVSPropertyOp16
 70
     1
102
RTVSPropertyOp17
 70
     1
102
RTVSPropertyOp18
 70
     1
102
RTVSPropertyOp19
 70
     1
102
RTVSPropertyOp20
 70
     1
102
RTVSPropertyOp21
 70
     1
102
RTVSPropertyOp22
 70
     1
102
RTVSPropertyOp23
 70
     1
102
RTVSPropertyOp24
 70
     1
102
RTVSPropertyOp25
 70
     1
102
RTVSPropertyOp26
 70
     1
102
RTVSPropertyOp27
 70
     1
  0
XRECORD
  5
389
102
{ACAD_REACTORS
330
388
102
}
330
388
100
AcDbXrecord
280
     1
102
RTVSPropertyOp0
 70
     1
102
RTVSPropertyOp1
 70
     1
102
RTVSPropertyOp2
 70
     1
102
RTVSPropertyOp3
 70
     1
102
RTVSPropertyOp4
 70
     1
102
RTVSPropertyOp5
 70
     1
102
RTVSPropertyOp6
 70
     1
102
RTVSPropertyOp7
 70
     1
102
RTVSPropertyOp8
 70
     1
102
RTVSPropertyOp9
 70
     1
102
RTVSPropertyOp10
 70
     1
102
RTVSPropertyOp11
 70
     1
102
RTVSPropertyOp12
 70
     1
102
RTVSPropertyOp13
 70
     1
102
RTVSPropertyOp14
 70
     1
102
RTVSPropertyOp15
 70
     1
102
RTVSPropertyOp16
 70
     1
102
RTVSPropertyOp17
 70
     1
102
RTVSPropertyOp18
 70
     1
102
RTVSPropertyOp19
 70
     1
102
RTVSPropertyOp20
 70
     1
102
RTVSPropertyOp21
 70
     1
102
RTVSPropertyOp22
 70
     1
102
RTVSPropertyOp23
 70
     1
102
RTVSPropertyOp24
 70
     1
102
RTVSPropertyOp25
 70
     1
102
RTVSPropertyOp26
 70
     1
102
RTVSPropertyOp27
 70
     1
  0
XRECORD
  5
387
102
{ACAD_REACTORS
330
386
102
}
330
386
100
AcDbXrecord
280
     1
102
RTVSPropertyOp0
 70
     1
102
RTVSPropertyOp1
 70
     1
102
RTVSPropertyOp2
 70
     1
102
RTVSPropertyOp3
 70
     1
102
RTVSPropertyOp4
 70
     1
102
RTVSPropertyOp5
 70
     1
102
RTVSPropertyOp6
 70
     1
102
RTVSPropertyOp7
 70
     1
102
RTVSPropertyOp8
 70
     1
102
RTVSPropertyOp9
 70
     1
102
RTVSPropertyOp10
 70
     1
102
RTVSPropertyOp11
 70
     1
102
RTVSPropertyOp12
 70
     1
102
RTVSPropertyOp13
 70
     1
102
RTVSPropertyOp14
 70
     1
102
RTVSPropertyOp15
 70
     1
102
RTVSPropertyOp16
 70
     1
102
RTVSPropertyOp17
 70
     1
102
RTVSPropertyOp18
 70
     1
102
RTVSPropertyOp19
 70
     1
102
RTVSPropertyOp20
 70
     1
102
RTVSPropertyOp21
 70
     1
102
RTVSPropertyOp22
 70
     1
102
RTVSPropertyOp23
 70
     1
102
RTVSPropertyOp24
 70
     1
102
RTVSPropertyOp25
 70
     1
102
RTVSPropertyOp26
 70
     1
102
RTVSPropertyOp27
 70
     1
  0
XRECORD
  5
38B
102
{ACAD_REACTORS
330
38A
102
}
330
38A
100
AcDbXrecord
280
     1
102
RTVSPropertyOp0
 70
     1
102
RTVSPropertyOp1
 70
     1
102
RTVSPropertyOp2
 70
     1
102
RTVSPropertyOp3
 70
     1
102
RTVSPropertyOp4
 70
     1
102
RTVSPropertyOp5
 70
     1
102
RTVSPropertyOp6
 70
     1
102
RTVSPropertyOp7
 70
     1
102
RTVSPropertyOp8
 70
     1
102
RTVSPropertyOp9
 70
     1
102
RTVSPropertyOp10
 70
     1
102
RTVSPropertyOp11
 70
     1
102
RTVSPropertyOp12
 70
     1
102
RTVSPropertyOp13
 70
     1
102
RTVSPropertyOp14
 70
     1
102
RTVSPropertyOp15
 70
     1
102
RTVSPropertyOp16
 70
     1
102
RTVSPropertyOp17
 70
     1
102
RTVSPropertyOp18
 70
     1
102
RTVSPropertyOp19
 70
     1
102
RTVSPropertyOp20
 70
     1
102
RTVSPropertyOp21
 70
     1
102
RTVSPropertyOp22
 70
     1
102
RTVSPropertyOp23
 70
     1
102
RTVSPropertyOp24
 70
     1
102
RTVSPropertyOp25
 70
     1
102
RTVSPropertyOp26
 70
     1
102
RTVSPropertyOp27
 70
     1
  0
XRECORD
  5
393
102
{ACAD_REACTORS
330
392
102
}
330
392
100
AcDbXrecord
280
     1
102
RTVSPropertyOp0
 70
     1
102
RTVSPropertyOp1
 70
     1
102
RTVSPropertyOp2
 70
     1
102
RTVSPropertyOp3
 70
     1
102
RTVSPropertyOp4
 70
     1
102
RTVSPropertyOp5
 70
     1
102
RTVSPropertyOp6
 70
     1
102
RTVSPropertyOp7
 70
     1
102
RTVSPropertyOp8
 70
     1
102
RTVSPropertyOp9
 70
     1
102
RTVSPropertyOp10
 70
     1
102
RTVSPropertyOp11
 70
     1
102
RTVSPropertyOp12
 70
     1
102
RTVSPropertyOp13
 70
     1
102
RTVSPropertyOp14
 70
     1
102
RTVSPropertyOp15
 70
     1
102
RTVSPropertyOp16
 70
     1
102
RTVSPropertyOp17
 70
     1
102
RTVSPropertyOp18
 70
     1
102
RTVSPropertyOp19
 70
     1
102
RTVSPropertyOp20
 70
     1
102
RTVSPropertyOp21
 70
     1
102
RTVSPropertyOp22
 70
     1
102
RTVSPropertyOp23
 70
     1
102
RTVSPropertyOp24
 70
     1
102
RTVSPropertyOp25
 70
     1
102
RTVSPropertyOp26
 70
     1
102
RTVSPropertyOp27
 70
     1
  0
XRECORD
  5
39B
102
{ACAD_REACTORS
330
39A
102
}
330
39A
100
AcDbXrecord
280
     1
102
RTVSPropertyOp0
 70
     1
102
RTVSPropertyOp1
 70
     1
102
RTVSPropertyOp2
 70
     1
102
RTVSPropertyOp3
 70
     1
102
RTVSPropertyOp4
 70
     1
102
RTVSPropertyOp5
 70
     1
102
RTVSPropertyOp6
 70
     1
102
RTVSPropertyOp7
 70
     1
102
RTVSPropertyOp8
 70
     1
102
RTVSPropertyOp9
 70
     1
102
RTVSPropertyOp10
 70
     1
102
RTVSPropertyOp11
 70
     1
102
RTVSPropertyOp12
 70
     1
102
RTVSPropertyOp13
 70
     1
102
RTVSPropertyOp14
 70
     1
102
RTVSPropertyOp15
 70
     1
102
RTVSPropertyOp16
 70
     1
102
RTVSPropertyOp17
 70
     1
102
RTVSPropertyOp18
 70
     1
102
RTVSPropertyOp19
 70
     1
102
RTVSPropertyOp20
 70
     1
102
RTVSPropertyOp21
 70
     1
102
RTVSPropertyOp22
 70
     1
102
RTVSPropertyOp23
 70
     1
102
RTVSPropertyOp24
 70
     1
102
RTVSPropertyOp25
 70
     1
102
RTVSPropertyOp26
 70
     1
102
RTVSPropertyOp27
 70
     1
  0
XRECORD
  5
38F
102
{ACAD_REACTORS
330
38E
102
}
330
38E
100
AcDbXrecord
280
     1
102
RTVSPropertyOp0
 70
     1
102
RTVSPropertyOp1
 70
     1
102
RTVSPropertyOp2
 70
     1
102
RTVSPropertyOp3
 70
     1
102
RTVSPropertyOp4
 70
     1
102
RTVSPropertyOp5
 70
     1
102
RTVSPropertyOp6
 70
     1
102
RTVSPropertyOp7
 70
     1
102
RTVSPropertyOp8
 70
     1
102
RTVSPropertyOp9
 70
     1
102
RTVSPropertyOp10
 70
     1
102
RTVSPropertyOp11
 70
     1
102
RTVSPropertyOp12
 70
     1
102
RTVSPropertyOp13
 70
     1
102
RTVSPropertyOp14
 70
     1
102
RTVSPropertyOp15
 70
     1
102
RTVSPropertyOp16
 70
     1
102
RTVSPropertyOp17
 70
     1
102
RTVSPropertyOp18
 70
     1
102
RTVSPropertyOp19
 70
     1
102
RTVSPropertyOp20
 70
     1
102
RTVSPropertyOp21
 70
     1
102
RTVSPropertyOp22
 70
     1
102
RTVSPropertyOp23
 70
     1
102
RTVSPropertyOp24
 70
     1
102
RTVSPropertyOp25
 70
     1
102
RTVSPropertyOp26
 70
     1
102
RTVSPropertyOp27
 70
     1
  0
XRECORD
  5
391
102
{ACAD_REACTORS
330
390
102
}
330
390
100
AcDbXrecord
280
     1
102
RTVSPropertyOp0
 70
     1
102
RTVSPropertyOp1
 70
     1
102
RTVSPropertyOp2
 70
     1
102
RTVSPropertyOp3
 70
     1
102
RTVSPropertyOp4
 70
     1
102
RTVSPropertyOp5
 70
     1
102
RTVSPropertyOp6
 70
     1
102
RTVSPropertyOp7
 70
     1
102
RTVSPropertyOp8
 70
     1
102
RTVSPropertyOp9
 70
     1
102
RTVSPropertyOp10
 70
     1
102
RTVSPropertyOp11
 70
     1
102
RTVSPropertyOp12
 70
     1
102
RTVSPropertyOp13
 70
     1
102
RTVSPropertyOp14
 70
     1
102
RTVSPropertyOp15
 70
     1
102
RTVSPropertyOp16
 70
     1
102
RTVSPropertyOp17
 70
     1
102
RTVSPropertyOp18
 70
     1
102
RTVSPropertyOp19
 70
     1
102
RTVSPropertyOp20
 70
     1
102
RTVSPropertyOp21
 70
     1
102
RTVSPropertyOp22
 70
     1
102
RTVSPropertyOp23
 70
     1
102
RTVSPropertyOp24
 70
     1
102
RTVSPropertyOp25
 70
     1
102
RTVSPropertyOp26
 70
     1
102
RTVSPropertyOp27
 70
     1
  0
XRECORD
  5
399
102
{ACAD_REACTORS
330
398
102
}
330
398
100
AcDbXrecord
280
     1
102
RTVSPropertyOp0
 70
     1
102
RTVSPropertyOp1
 70
     1
102
RTVSPropertyOp2
 70
     1
102
RTVSPropertyOp3
 70
     1
102
RTVSPropertyOp4
 70
     1
102
RTVSPropertyOp5
 70
     1
102
RTVSPropertyOp6
 70
     1
102
RTVSPropertyOp7
 70
     1
102
RTVSPropertyOp8
 70
     1
102
RTVSPropertyOp9
 70
     1
102
RTVSPropertyOp10
 70
     1
102
RTVSPropertyOp11
 70
     1
102
RTVSPropertyOp12
 70
     1
102
RTVSPropertyOp13
 70
     1
102
RTVSPropertyOp14
 70
     1
102
RTVSPropertyOp15
 70
     1
102
RTVSPropertyOp16
 70
     1
102
RTVSPropertyOp17
 70
     1
102
RTVSPropertyOp18
 70
     1
102
RTVSPropertyOp19
 70
     1
102
RTVSPropertyOp20
 70
     1
102
RTVSPropertyOp21
 70
     1
102
RTVSPropertyOp22
 70
     1
102
RTVSPropertyOp23
 70
     1
102
RTVSPropertyOp24
 70
     1
102
RTVSPropertyOp25
 70
     1
102
RTVSPropertyOp26
 70
     1
102
RTVSPropertyOp27
 70
     1
  0
XRECORD
  5
37D
102
{ACAD_REACTORS
330
37C
102
}
330
37C
100
AcDbXrecord
280
     1
102
RTVSPropertyOp0
 70
     1
102
RTVSPropertyOp1
 70
     1
102
RTVSPropertyOp2
 70
     1
102
RTVSPropertyOp3
 70
     1
102
RTVSPropertyOp4
 70
     1
102
RTVSPropertyOp5
 70
     1
102
RTVSPropertyOp6
 70
     1
102
RTVSPropertyOp7
 70
     1
102
RTVSPropertyOp8
 70
     1
102
RTVSPropertyOp9
 70
     1
102
RTVSPropertyOp10
 70
     1
102
RTVSPropertyOp11
 70
     1
102
RTVSPropertyOp12
 70
     1
102
RTVSPropertyOp13
 70
     1
102
RTVSPropertyOp14
 70
     1
102
RTVSPropertyOp15
 70
     1
102
RTVSPropertyOp16
 70
     1
102
RTVSPropertyOp17
 70
     1
102
RTVSPropertyOp18
 70
     1
102
RTVSPropertyOp19
 70
     1
102
RTVSPropertyOp20
 70
     1
102
RTVSPropertyOp21
 70
     1
102
RTVSPropertyOp22
 70
     1
102
RTVSPropertyOp23
 70
     1
102
RTVSPropertyOp24
 70
     1
102
RTVSPropertyOp25
 70
     1
102
RTVSPropertyOp26
 70
     1
102
RTVSPropertyOp27
 70
     1
  0
XRECORD
  5
37F
102
{ACAD_REACTORS
330
37E
102
}
330
37E
100
AcDbXrecord
280
     1
102
RTVSPropertyOp0
 70
     1
102
RTVSPropertyOp1
 70
     1
102
RTVSPropertyOp2
 70
     1
102
RTVSPropertyOp3
 70
     1
102
RTVSPropertyOp4
 70
     1
102
RTVSPropertyOp5
 70
     1
102
RTVSPropertyOp6
 70
     1
102
RTVSPropertyOp7
 70
     1
102
RTVSPropertyOp8
 70
     1
102
RTVSPropertyOp9
 70
     1
102
RTVSPropertyOp10
 70
     1
102
RTVSPropertyOp11
 70
     1
102
RTVSPropertyOp12
 70
     1
102
RTVSPropertyOp13
 70
     1
102
RTVSPropertyOp14
 70
     1
102
RTVSPropertyOp15
 70
     1
102
RTVSPropertyOp16
 70
     1
102
RTVSPropertyOp17
 70
     1
102
RTVSPropertyOp18
 70
     1
102
RTVSPropertyOp19
 70
     1
102
RTVSPropertyOp20
 70
     1
102
RTVSPropertyOp21
 70
     1
102
RTVSPropertyOp22
 70
     1
102
RTVSPropertyOp23
 70
     1
102
RTVSPropertyOp24
 70
     1
102
RTVSPropertyOp25
 70
     1
102
RTVSPropertyOp26
 70
     1
102
RTVSPropertyOp27
 70
     1
  0
XRECORD
  5
381
102
{ACAD_REACTORS
330
380
102
}
330
380
100
AcDbXrecord
280
     1
102
RTVSPropertyOp0
 70
     1
102
RTVSPropertyOp1
 70
     1
102
RTVSPropertyOp2
 70
     1
102
RTVSPropertyOp3
 70
     1
102
RTVSPropertyOp4
 70
     1
102
RTVSPropertyOp5
 70
     1
102
RTVSPropertyOp6
 70
     1
102
RTVSPropertyOp7
 70
     1
102
RTVSPropertyOp8
 70
     1
102
RTVSPropertyOp9
 70
     1
102
RTVSPropertyOp10
 70
     1
102
RTVSPropertyOp11
 70
     1
102
RTVSPropertyOp12
 70
     1
102
RTVSPropertyOp13
 70
     1
102
RTVSPropertyOp14
 70
     1
102
RTVSPropertyOp15
 70
     1
102
RTVSPropertyOp16
 70
     1
102
RTVSPropertyOp17
 70
     1
102
RTVSPropertyOp18
 70
     1
102
RTVSPropertyOp19
 70
     1
102
RTVSPropertyOp20
 70
     1
102
RTVSPropertyOp21
 70
     1
102
RTVSPropertyOp22
 70
     1
102
RTVSPropertyOp23
 70
     1
102
RTVSPropertyOp24
 70
     1
102
RTVSPropertyOp25
 70
     1
102
RTVSPropertyOp26
 70
     1
102
RTVSPropertyOp27
 70
     1
  0
XRECORD
  5
383
102
{ACAD_REACTORS
330
382
102
}
330
382
100
AcDbXrecord
280
     1
102
RTVSPropertyOp0
 70
     1
102
RTVSPropertyOp1
 70
     1
102
RTVSPropertyOp2
 70
     1
102
RTVSPropertyOp3
 70
     1
102
RTVSPropertyOp4
 70
     1
102
RTVSPropertyOp5
 70
     1
102
RTVSPropertyOp6
 70
     1
102
RTVSPropertyOp7
 70
     1
102
RTVSPropertyOp8
 70
     1
102
RTVSPropertyOp9
 70
     1
102
RTVSPropertyOp10
 70
     1
102
RTVSPropertyOp11
 70
     1
102
RTVSPropertyOp12
 70
     1
102
RTVSPropertyOp13
 70
     1
102
RTVSPropertyOp14
 70
     1
102
RTVSPropertyOp15
 70
     1
102
RTVSPropertyOp16
 70
     1
102
RTVSPropertyOp17
 70
     1
102
RTVSPropertyOp18
 70
     1
102
RTVSPropertyOp19
 70
     1
102
RTVSPropertyOp20
 70
     1
102
RTVSPropertyOp21
 70
     1
102
RTVSPropertyOp22
 70
     1
102
RTVSPropertyOp23
 70
     1
102
RTVSPropertyOp24
 70
     1
102
RTVSPropertyOp25
 70
     1
102
RTVSPropertyOp26
 70
     1
102
RTVSPropertyOp27
 70
     1
  0
XRECORD
  5
397
102
{ACAD_REACTORS
330
396
102
}
330
396
100
AcDbXrecord
280
     1
102
RTVSPropertyOp0
 70
     1
102
RTVSPropertyOp1
 70
     1
102
RTVSPropertyOp2
 70
     1
102
RTVSPropertyOp3
 70
     1
102
RTVSPropertyOp4
 70
     1
102
RTVSPropertyOp5
 70
     1
102
RTVSPropertyOp6
 70
     1
102
RTVSPropertyOp7
 70
     1
102
RTVSPropertyOp8
 70
     1
102
RTVSPropertyOp9
 70
     1
102
RTVSPropertyOp10
 70
     1
102
RTVSPropertyOp11
 70
     1
102
RTVSPropertyOp12
 70
     1
102
RTVSPropertyOp13
 70
     1
102
RTVSPropertyOp14
 70
     1
102
RTVSPropertyOp15
 70
     1
102
RTVSPropertyOp16
 70
     1
102
RTVSPropertyOp17
 70
     1
102
RTVSPropertyOp18
 70
     1
102
RTVSPropertyOp19
 70
     1
102
RTVSPropertyOp20
 70
     1
102
RTVSPropertyOp21
 70
     1
102
RTVSPropertyOp22
 70
     1
102
RTVSPropertyOp23
 70
     1
102
RTVSPropertyOp24
 70
     1
102
RTVSPropertyOp25
 70
     1
102
RTVSPropertyOp26
 70
     1
102
RTVSPropertyOp27
 70
     1
  0
XRECORD
  5
38D
102
{ACAD_REACTORS
330
38C
102
}
330
38C
100
AcDbXrecord
280
     1
102
RTVSPropertyOp0
 70
     1
102
RTVSPropertyOp1
 70
     1
102
RTVSPropertyOp2
 70
     1
102
RTVSPropertyOp3
 70
     1
102
RTVSPropertyOp4
 70
     1
102
RTVSPropertyOp5
 70
     1
102
RTVSPropertyOp6
 70
     1
102
RTVSPropertyOp7
 70
     1
102
RTVSPropertyOp8
 70
     1
102
RTVSPropertyOp9
 70
     1
102
RTVSPropertyOp10
 70
     1
102
RTVSPropertyOp11
 70
     1
102
RTVSPropertyOp12
 70
     1
102
RTVSPropertyOp13
 70
     1
102
RTVSPropertyOp14
 70
     1
102
RTVSPropertyOp15
 70
     1
102
RTVSPropertyOp16
 70
     1
102
RTVSPropertyOp17
 70
     1
102
RTVSPropertyOp18
 70
     1
102
RTVSPropertyOp19
 70
     1
102
RTVSPropertyOp20
 70
     1
102
RTVSPropertyOp21
 70
     1
102
RTVSPropertyOp22
 70
     1
102
RTVSPropertyOp23
 70
     1
102
RTVSPropertyOp24
 70
     1
102
RTVSPropertyOp25
 70
     1
102
RTVSPropertyOp26
 70
     1
102
RTVSPropertyOp27
 70
     1
  0
XRECORD
  5
395
102
{ACAD_REACTORS
330
394
102
}
330
394
100
AcDbXrecord
280
     1
102
RTVSPropertyOp0
 70
     1
102
RTVSPropertyOp1
 70
     1
102
RTVSPropertyOp2
 70
     1
102
RTVSPropertyOp3
 70
     1
102
RTVSPropertyOp4
 70
     1
102
RTVSPropertyOp5
 70
     1
102
RTVSPropertyOp6
 70
     1
102
RTVSPropertyOp7
 70
     1
102
RTVSPropertyOp8
 70
     1
102
RTVSPropertyOp9
 70
     1
102
RTVSPropertyOp10
 70
     1
102
RTVSPropertyOp11
 70
     1
102
RTVSPropertyOp12
 70
     1
102
RTVSPropertyOp13
 70
     1
102
RTVSPropertyOp14
 70
     1
102
RTVSPropertyOp15
 70
     1
102
RTVSPropertyOp16
 70
     1
102
RTVSPropertyOp17
 70
     1
102
RTVSPropertyOp18
 70
     1
102
RTVSPropertyOp19
 70
     1
102
RTVSPropertyOp20
 70
     1
102
RTVSPropertyOp21
 70
     1
102
RTVSPropertyOp22
 70
     1
102
RTVSPropertyOp23
 70
     1
102
RTVSPropertyOp24
 70
     1
102
RTVSPropertyOp25
 70
     1
102
RTVSPropertyOp26
 70
     1
102
RTVSPropertyOp27
 70
     1
  0
ENDSEC
  0
EOF
